ISO-10303-21;
HEADER;
FILE_DESCRIPTION (( 'STEP AP203' ),
    '1' );
FILE_NAME ('38467.step',
    '2021-10-15T13:34:45',
    ( '' ),
    ( '' ),
    'SwSTEP 2.0',
    'SolidWorks 2019',
    '' );
FILE_SCHEMA (( 'CONFIG_CONTROL_DESIGN' ));
ENDSEC;

DATA;
#1 = DATE_TIME_ROLE ( 'creation_date' ) ;
#2 = ADVANCED_FACE ( 'NONE', ( #49 ), #51, .F. ) ;
#3 = ORIENTED_EDGE ( 'NONE', *, *, #190, .T. ) ;
#4 = COORDINATED_UNIVERSAL_TIME_OFFSET ( 1, 0, .AHEAD. ) ;
#5 = DIRECTION ( 'NONE',  ( -3.491481338843133355E-15, 1.224646799147353207E-16, -1.000000000000000000 ) ) ;
#6 = CC_DESIGN_APPROVAL ( #125, ( #136 ) ) ;
#7 = CARTESIAN_POINT ( 'NONE',  ( 1.048406106688726887E-15, 0.8249999999999962919, 0.3002754432696196352 ) ) ;
#8 = CARTESIAN_POINT ( 'NONE',  ( 1.316288464743861212E-13, 0.8249999999999962919, 37.69999999999999574 ) ) ;
#9 = PRODUCT ( '38467', '38467', '', ( #187 ) ) ;
#10 =( NAMED_UNIT ( * ) SI_UNIT ( $, .STERADIAN. ) SOLID_ANGLE_UNIT ( ) );
#11 = DIRECTION ( 'NONE',  ( -3.491481338843133355E-15, 1.224646799147353207E-16, -1.000000000000000000 ) ) ;
#12 = CARTESIAN_POINT ( 'NONE',  ( 1.048406106688726493E-15, -3.677313604626922024E-17, 0.3002754432696195241 ) ) ;
#13 = CC_DESIGN_DATE_AND_TIME_ASSIGNMENT ( #164, #191, ( #136 ) ) ;
#14 = CALENDAR_DATE ( 2021, 15, 10 ) ;
#15 = ADVANCED_BREP_SHAPE_REPRESENTATION ( '38467', ( #64, #134, #139 ), #194 ) ;
#16 = PERSON_AND_ORGANIZATION_ROLE ( 'creator' ) ;
#17 = CIRCLE ( 'NONE', #188, 0.8250000000000009548 ) ;
#18 = COORDINATED_UNIVERSAL_TIME_OFFSET ( 1, 0, .AHEAD. ) ;
#19 = EDGE_LOOP ( 'NONE', ( #192 ) ) ;
#20 = DIRECTION ( 'NONE',  ( 1.000000000000000000, 0.0000000000000000000, 0.0000000000000000000 ) ) ;
#21 = AXIS2_PLACEMENT_3D ( 'NONE', #22, #186, #25 ) ;
#22 = CARTESIAN_POINT ( 'NONE',  ( 1.326762908760390423E-13, -4.653657836759941941E-15, 38.00000000000000000 ) ) ;
#23 = CC_DESIGN_PERSON_AND_ORGANIZATION_ASSIGNMENT ( #160, #61, ( #9 ) ) ;
#24 = PLANE ( 'NONE',  #201 ) ;
#25 = DIRECTION ( 'NONE',  ( 0.0000000000000000000, 1.000000000000000000, 0.0000000000000000000 ) ) ;
#26 = APPROVAL_ROLE ( '' ) ;
#27 = DATE_AND_TIME ( #14, #54 ) ;
#28 = AXIS2_PLACEMENT_3D ( 'NONE', #180, #30, #97 ) ;
#29 = SHAPE_DEFINITION_REPRESENTATION ( #195, #15 ) ;
#30 = DIRECTION ( 'NONE',  ( 3.491481338843133355E-15, -1.224646799147353207E-16, 1.000000000000000000 ) ) ;
#31 = ORIENTED_EDGE ( 'NONE', *, *, #92, .F. ) ;
#32 = AXIS2_PLACEMENT_3D ( 'NONE', #83, #122, #76 ) ;
#33 = ORIENTED_EDGE ( 'NONE', *, *, #50, .T. ) ;
#34 = DIRECTION ( 'NONE',  ( 0.0000000000000000000, 1.000000000000000000, 0.0000000000000000000 ) ) ;
#35 = FACE_OUTER_BOUND ( 'NONE', #19, .T. ) ;
#36 = AXIS2_PLACEMENT_3D ( 'NONE', #185, #102, #167 ) ;
#37 = CARTESIAN_POINT ( 'NONE',  ( 1.326762908760390423E-13, 0.5249999999999963585, 38.00000000000000000 ) ) ;
#38 = AXIS2_PLACEMENT_3D ( 'NONE', #199, #140, #58 ) ;
#39 = DIRECTION ( 'NONE',  ( -4.275831445896958607E-31, -1.000000000000000000, -1.224646799147353207E-16 ) ) ;
#40 = DIRECTION ( 'NONE',  ( 0.0000000000000000000, 1.000000000000000000, 0.0000000000000000000 ) ) ;
#41 = APPROVAL_ROLE ( '' ) ;
#42 = LOCAL_TIME ( 15, 34, 45.00000000000000000, #172 ) ;
#43 = APPROVAL_DATE_TIME ( #27, #52 ) ;
#44 = SECURITY_CLASSIFICATION_LEVEL ( 'unclassified' ) ;
#45 = APPROVAL_DATE_TIME ( #93, #163 ) ;
#46 = ORIENTED_EDGE ( 'NONE', *, *, #98, .F. ) ;
#47 = PERSON_AND_ORGANIZATION ( #153, #117 ) ;
#48 = CC_DESIGN_APPROVAL ( #163, ( #53 ) ) ;
#49 = FACE_OUTER_BOUND ( 'NONE', #128, .T. ) ;
#50 = EDGE_CURVE ( 'NONE', #105, #105, #130, .T. ) ;
#51 = PLANE ( 'NONE',  #28 ) ;
#52 = APPROVAL ( #96, 'UNSPECIFIED' ) ;
#53 = PRODUCT_DEFINITION_FORMATION_WITH_SPECIFIED_SOURCE ( 'ANY', '', #9, .NOT_KNOWN. ) ;
#54 = LOCAL_TIME ( 15, 34, 45.00000000000000000, #80 ) ;
#55 = FACE_OUTER_BOUND ( 'NONE', #100, .T. ) ;
#56 = CARTESIAN_POINT ( 'NONE',  ( 1.326762908760390423E-13, -4.653657836759941941E-15, 38.00000000000000000 ) ) ;
#57 = VERTEX_POINT ( 'NONE', #37 ) ;
#58 = DIRECTION ( 'NONE',  ( 4.275831445896958607E-31, 1.000000000000000000, 1.224646799147353207E-16 ) ) ;
#59 = PERSON_AND_ORGANIZATION ( #153, #117 ) ;
#60 = CIRCLE ( 'NONE', #36, 0.8249999999999978462 ) ;
#61 = PERSON_AND_ORGANIZATION_ROLE ( 'design_owner' ) ;
#62 = DIRECTION ( 'NONE',  ( 0.0000000000000000000, 0.0000000000000000000, 1.000000000000000000 ) ) ;
#63 = EDGE_LOOP ( 'NONE', ( #3 ) ) ;
#64 = MANIFOLD_SOLID_BREP ( 'Corps-Déplacer/Copier1[1]', #154 ) ;
#65 = DATE_AND_TIME ( #143, #71 ) ;
#66 = EDGE_LOOP ( 'NONE', ( #31 ) ) ;
#67 = AXIS2_PLACEMENT_3D ( 'NONE', #12, #106, #88 ) ;
#68 = DIRECTION ( 'NONE',  ( 4.668921077302410542E-31, 1.000000000000000000, 1.314184451497586929E-16 ) ) ;
#69 = EDGE_CURVE ( 'NONE', #85, #85, #151, .T. ) ;
#70 = CARTESIAN_POINT ( 'NONE',  ( 4.189777606611760026E-14, 0.8249999999999962919, 12.00000000000000000 ) ) ;
#71 = LOCAL_TIME ( 15, 34, 45.00000000000000000, #175 ) ;
#72 = DIRECTION ( 'NONE',  ( -3.491481338843133355E-15, 1.224646799147353207E-16, -1.000000000000000000 ) ) ;
#73 = CC_DESIGN_PERSON_AND_ORGANIZATION_ASSIGNMENT ( #108, #189, ( #107 ) ) ;
#74 = VERTEX_POINT ( 'NONE', #133 ) ;
#75 = CONICAL_SURFACE ( 'NONE', #67, 0.8249999999999962919, 1.221730476396026388 ) ;
#76 = DIRECTION ( 'NONE',  ( 4.275831445896958607E-31, 1.000000000000000000, 1.224646799147353207E-16 ) ) ;
#77 = PERSON_AND_ORGANIZATION ( #153, #117 ) ;
#78 = APPROVAL_PERSON_ORGANIZATION ( #47, #163, #123 ) ;
#79 = PERSON_AND_ORGANIZATION_ROLE ( 'classification_officer' ) ;
#80 = COORDINATED_UNIVERSAL_TIME_OFFSET ( 1, 0, .AHEAD. ) ;
#81 = EDGE_LOOP ( 'NONE', ( #178 ) ) ;
#82 = DIRECTION ( 'NONE',  ( -3.491481338843133355E-15, 1.224646799147353207E-16, -1.000000000000000000 ) ) ;
#83 = CARTESIAN_POINT ( 'NONE',  ( 1.326762908760390423E-13, 3.936869429487314640E-33, 38.00000000000000000 ) ) ;
#84 = AXIS2_PLACEMENT_3D ( 'NONE', #121, #11, #170 ) ;
#85 = VERTEX_POINT ( 'NONE', #70 ) ;
#86 = FACE_OUTER_BOUND ( 'NONE', #193, .T. ) ;
#87 = DIRECTION ( 'NONE',  ( 3.491481338843133355E-15, -1.224646799147353207E-16, 1.000000000000000000 ) ) ;
#88 = DIRECTION ( 'NONE',  ( -4.668921077302410542E-31, -1.000000000000000000, -1.314184451497586929E-16 ) ) ;
#89 = AXIS2_PLACEMENT_3D ( 'NONE', #56, #72, #155 ) ;
#90 = APPLICATION_PROTOCOL_DEFINITION ( 'international standard', 'config_control_design', 1994, #95 ) ;
#91 = APPLICATION_CONTEXT ( 'configuration controlled 3d designs of mechanical parts and assemblies' ) ;
#92 = EDGE_CURVE ( 'NONE', #183, #183, #17, .T. ) ;
#93 = DATE_AND_TIME ( #158, #113 ) ;
#94 = CC_DESIGN_SECURITY_CLASSIFICATION ( #136, ( #53 ) ) ;
#95 = APPLICATION_CONTEXT ( 'configuration controlled 3d designs of mechanical parts and assemblies' ) ;
#96 = APPROVAL_STATUS ( 'not_yet_approved' ) ;
#97 = DIRECTION ( 'NONE',  ( -4.275831445896958607E-31, -1.000000000000000000, -1.224646799147353207E-16 ) ) ;
#98 = EDGE_CURVE ( 'NONE', #74, #74, #60, .T. ) ;
#99 = ORIENTED_EDGE ( 'NONE', *, *, #69, .F. ) ;
#100 = EDGE_LOOP ( 'NONE', ( #162 ) ) ;
#101 = FACE_BOUND ( 'NONE', #63, .T. ) ;
#102 = DIRECTION ( 'NONE',  ( -3.491481338843133355E-15, 1.224646799147353207E-16, -1.000000000000000000 ) ) ;
#103 =( LENGTH_UNIT ( ) NAMED_UNIT ( * ) SI_UNIT ( .MILLI., .METRE. ) );
#104 = CONICAL_SURFACE ( 'NONE', #89, 0.5250000000000010214, 0.7853981633974453924 ) ;
#105 = VERTEX_POINT ( 'NONE', #7 ) ;
#106 = DIRECTION ( 'NONE',  ( 3.491481338843133355E-15, -1.224646799147353207E-16, 1.000000000000000000 ) ) ;
#107 = PRODUCT_DEFINITION ( 'UNKNOWN', '', #53, #115 ) ;
#108 = PERSON_AND_ORGANIZATION ( #153, #117 ) ;
#109 = PERSON_AND_ORGANIZATION ( #153, #117 ) ;
#110 = PERSON_AND_ORGANIZATION ( #153, #117 ) ;
#111 = DATE_AND_TIME ( #161, #173 ) ;
#112 = ORIENTED_EDGE ( 'NONE', *, *, #98, .T. ) ;
#113 = LOCAL_TIME ( 15, 34, 45.00000000000000000, #18 ) ;
#114 = APPROVAL_STATUS ( 'not_yet_approved' ) ;
#115 = DESIGN_CONTEXT ( 'detailed design', #91, 'design' ) ;
#116 = ORIENTED_EDGE ( 'NONE', *, *, #69, .T. ) ;
#117 = ORGANIZATION ( 'UNSPECIFIED', 'UNSPECIFIED', '' ) ;
#118 = CC_DESIGN_DATE_AND_TIME_ASSIGNMENT ( #111, #1, ( #107 ) ) ;
#119 =( NAMED_UNIT ( * ) PLANE_ANGLE_UNIT ( ) SI_UNIT ( $, .RADIAN. ) );
#120 = PLANE ( 'NONE',  #32 ) ;
#121 = CARTESIAN_POINT ( 'NONE',  ( 0.0000000000000000000, 0.0000000000000000000, 0.0000000000000000000 ) ) ;
#122 = DIRECTION ( 'NONE',  ( -3.491481338843133355E-15, 1.224646799147353207E-16, -1.000000000000000000 ) ) ;
#123 = APPROVAL_ROLE ( '' ) ;
#124 = CLOSED_SHELL ( 'NONE', ( #135, #203, #198 ) ) ;
#125 = APPROVAL ( #114, 'UNSPECIFIED' ) ;
#126 = PERSON_AND_ORGANIZATION_ROLE ( 'design_supplier' ) ;
#127 = APPROVAL_STATUS ( 'not_yet_approved' ) ;
#128 = EDGE_LOOP ( 'NONE', ( #116 ) ) ;
#129 = EDGE_LOOP ( 'NONE', ( #33 ) ) ;
#130 = CIRCLE ( 'NONE', #132, 0.8249999999999962919 ) ;
#131 = PRODUCT_RELATED_PRODUCT_CATEGORY ( 'detail', '', ( #9 ) ) ;
#132 = AXIS2_PLACEMENT_3D ( 'NONE', #147, #5, #68 ) ;
#133 = CARTESIAN_POINT ( 'NONE',  ( 4.189777606611760026E-14, 0.8249999999999962919, 12.00000000000000000 ) ) ;
#134 = MANIFOLD_SOLID_BREP ( 'Corps-Déplacer/Copier1[2]', #124 ) ;
#135 = ADVANCED_FACE ( 'NONE', ( #138 ), #75, .T. ) ;
#136 = SECURITY_CLASSIFICATION ( '', '', #44 ) ;
#137 = FACE_OUTER_BOUND ( 'NONE', #66, .T. ) ;
#138 = FACE_OUTER_BOUND ( 'NONE', #129, .T. ) ;
#139 = AXIS2_PLACEMENT_3D ( 'NONE', #176, #62, #20 ) ;
#140 = DIRECTION ( 'NONE',  ( -3.491481338843133355E-15, 1.224646799147353207E-16, -1.000000000000000000 ) ) ;
#141 = PERSON_AND_ORGANIZATION ( #153, #117 ) ;
#142 = CC_DESIGN_APPROVAL ( #52, ( #107 ) ) ;
#143 = CALENDAR_DATE ( 2021, 15, 10 ) ;
#144 = EDGE_LOOP ( 'NONE', ( #46 ) ) ;
#145 = APPLICATION_PROTOCOL_DEFINITION ( 'international standard', 'config_control_design', 1994, #91 ) ;
#146 = ADVANCED_FACE ( 'NONE', ( #137, #101 ), #104, .T. ) ;
#147 = CARTESIAN_POINT ( 'NONE',  ( 1.048406106688726493E-15, -3.677313604626922024E-17, 0.3002754432696195241 ) ) ;
#148 = APPROVAL_PERSON_ORGANIZATION ( #77, #52, #26 ) ;
#149 = CARTESIAN_POINT ( 'NONE',  ( 4.189777606611760026E-14, -1.469576158976823947E-15, 12.00000000000000000 ) ) ;
#150 = DIRECTION ( 'NONE',  ( -3.491481338843133355E-15, 1.224646799147353207E-16, -1.000000000000000000 ) ) ;
#151 = CIRCLE ( 'NONE', #197, 0.8249999999999978462 ) ;
#152 = FACE_OUTER_BOUND ( 'NONE', #144, .T. ) ;
#153 = PERSON ( 'UNSPECIFIED', 'UNSPECIFIED', 'UNSPECIFIED', ('UNSPECIFIED'), ('UNSPECIFIED'), ('UNSPECIFIED') ) ;
#154 = CLOSED_SHELL ( 'NONE', ( #2, #182, #146, #196 ) ) ;
#155 = DIRECTION ( 'NONE',  ( 0.0000000000000000000, 1.000000000000000000, 0.0000000000000000000 ) ) ;
#156 = CYLINDRICAL_SURFACE ( 'NONE', #38, 0.8249999999999970690 ) ;
#157 = CARTESIAN_POINT ( 'NONE',  ( 1.316288464743861212E-13, -4.616918432785521081E-15, 37.69999999999999574 ) ) ;
#158 = CALENDAR_DATE ( 2021, 15, 10 ) ;
#159 = CC_DESIGN_PERSON_AND_ORGANIZATION_ASSIGNMENT ( #141, #126, ( #53 ) ) ;
#160 = PERSON_AND_ORGANIZATION ( #153, #117 ) ;
#161 = CALENDAR_DATE ( 2021, 15, 10 ) ;
#162 = ORIENTED_EDGE ( 'NONE', *, *, #92, .T. ) ;
#163 = APPROVAL ( #127, 'UNSPECIFIED' ) ;
#164 = DATE_AND_TIME ( #174, #42 ) ;
#165 = EDGE_LOOP ( 'NONE', ( #112 ) ) ;
#166 = APPROVAL_PERSON_ORGANIZATION ( #110, #125, #41 ) ;
#167 = DIRECTION ( 'NONE',  ( 0.0000000000000000000, 1.000000000000000000, 0.0000000000000000000 ) ) ;
#168 = CC_DESIGN_PERSON_AND_ORGANIZATION_ASSIGNMENT ( #59, #16, ( #53 ) ) ;
#169 = CARTESIAN_POINT ( 'NONE',  ( 4.189777606611760026E-14, 6.186509103480122947E-33, 12.00000000000000000 ) ) ;
#170 = DIRECTION ( 'NONE',  ( 4.275831445896958607E-31, 1.000000000000000000, 1.224646799147353207E-16 ) ) ;
#171 = CYLINDRICAL_SURFACE ( 'NONE', #84, 0.8249999999999992895 ) ;
#172 = COORDINATED_UNIVERSAL_TIME_OFFSET ( 1, 0, .AHEAD. ) ;
#173 = LOCAL_TIME ( 15, 34, 45.00000000000000000, #4 ) ;
#174 = CALENDAR_DATE ( 2021, 15, 10 ) ;
#175 = COORDINATED_UNIVERSAL_TIME_OFFSET ( 1, 0, .AHEAD. ) ;
#176 = CARTESIAN_POINT ( 'NONE',  ( 0.0000000000000000000, 0.0000000000000000000, 0.0000000000000000000 ) ) ;
#177 = CIRCLE ( 'NONE', #21, 0.5250000000000010214 ) ;
#178 = ORIENTED_EDGE ( 'NONE', *, *, #190, .F. ) ;
#179 = APPROVAL_DATE_TIME ( #65, #125 ) ;
#180 = CARTESIAN_POINT ( 'NONE',  ( 4.189777606611760026E-14, 6.186509103480122947E-33, 12.00000000000000000 ) ) ;
#181 = FACE_OUTER_BOUND ( 'NONE', #81, .T. ) ;
#182 = ADVANCED_FACE ( 'NONE', ( #86, #55 ), #171, .T. ) ;
#183 = VERTEX_POINT ( 'NONE', #8 ) ;
#184 = CC_DESIGN_PERSON_AND_ORGANIZATION_ASSIGNMENT ( #109, #79, ( #136 ) ) ;
#185 = CARTESIAN_POINT ( 'NONE',  ( 4.189777606611760026E-14, -1.469576158976823947E-15, 12.00000000000000000 ) ) ;
#186 = DIRECTION ( 'NONE',  ( -3.491481338843133355E-15, 1.224646799147353207E-16, -1.000000000000000000 ) ) ;
#187 = MECHANICAL_CONTEXT ( 'NONE', #95, 'mechanical' ) ;
#188 = AXIS2_PLACEMENT_3D ( 'NONE', #157, #150, #34 ) ;
#189 = PERSON_AND_ORGANIZATION_ROLE ( 'creator' ) ;
#190 = EDGE_CURVE ( 'NONE', #57, #57, #177, .T. ) ;
#191 = DATE_TIME_ROLE ( 'classification_date' ) ;
#192 = ORIENTED_EDGE ( 'NONE', *, *, #50, .F. ) ;
#193 = EDGE_LOOP ( 'NONE', ( #99 ) ) ;
#194 =( GEOMETRIC_REPRESENTATION_CONTEXT ( 3 ) GLOBAL_UNCERTAINTY_ASSIGNED_CONTEXT ( ( #200 ) ) GLOBAL_UNIT_ASSIGNED_CONTEXT ( ( #103, #119, #10 ) ) REPRESENTATION_CONTEXT ( 'NONE', 'WORKASPACE' ) );
#195 = PRODUCT_DEFINITION_SHAPE ( 'NONE', 'NONE',  #107 ) ;
#196 = ADVANCED_FACE ( 'NONE', ( #181 ), #120, .F. ) ;
#197 = AXIS2_PLACEMENT_3D ( 'NONE', #149, #82, #40 ) ;
#198 = ADVANCED_FACE ( 'NONE', ( #152 ), #24, .T. ) ;
#199 = CARTESIAN_POINT ( 'NONE',  ( 0.0000000000000000000, 0.0000000000000000000, 0.0000000000000000000 ) ) ;
#200 = UNCERTAINTY_MEASURE_WITH_UNIT (LENGTH_MEASURE( 1.000000000000000082E-05 ), #103, 'distance_accuracy_value', 'NONE');
#201 = AXIS2_PLACEMENT_3D ( 'NONE', #169, #87, #39 ) ;
#202 = FACE_OUTER_BOUND ( 'NONE', #165, .T. ) ;
#203 = ADVANCED_FACE ( 'NONE', ( #35, #202 ), #156, .T. ) ;
ENDSEC;
END-ISO-10303-21;
