ISO-10303-21;
HEADER;
FILE_DESCRIPTION (( 'STEP AP203' ),
    '1' );
FILE_NAME ('384658.step',
    '2022-01-11T10:23:10',
    ( '' ),
    ( '' ),
    'SwSTEP 2.0',
    'SolidWorks 2019',
    '' );
FILE_SCHEMA (( 'CONFIG_CONTROL_DESIGN' ));
ENDSEC;

DATA;
#1 = DIRECTION ( 'NONE',  ( 0.0000000000000000000, 1.000000000000000000, 0.0000000000000000000 ) ) ;
#2 = ADVANCED_FACE ( 'NONE', ( #152 ), #234, .F. ) ;
#3 = CIRCLE ( 'NONE', #225, 2.543704798532384626 ) ;
#4 = DIRECTION ( 'NONE',  ( 1.000000000000000000, 0.0000000000000000000, 0.0000000000000000000 ) ) ;
#5 = DIRECTION ( 'NONE',  ( 0.0000000000000000000, -1.000000000000000000, 0.0000000000000000000 ) ) ;
#6 = APPROVAL_DATE_TIME ( #322, #208 ) ;
#7 = DIRECTION ( 'NONE',  ( -4.275831445896958607E-31, -1.000000000000000000, -1.224646799147353207E-16 ) ) ;
#8 = CARTESIAN_POINT ( 'NONE',  ( 0.0000000000000000000, 0.0000000000000000000, 0.0000000000000000000 ) ) ;
#9 = LOCAL_TIME ( 11, 23, 10.00000000000000000, #107 ) ;
#10 = APPROVAL ( #203, 'UNSPECIFIED' ) ;
#11 = DIRECTION ( 'NONE',  ( 0.0000000000000000000, 1.000000000000000000, 0.0000000000000000000 ) ) ;
#12 = CARTESIAN_POINT ( 'NONE',  ( 5.097191119013071837E-14, -1.787853974499540849E-15, 14.59893559305682587 ) ) ;
#13 = CARTESIAN_POINT ( 'NONE',  ( 3.700970219173720726E-14, 3.099999999999998757, 10.59999999999999787 ) ) ;
#14 = ORIENTED_EDGE ( 'NONE', *, *, #140, .F. ) ;
#15 = AXIS2_PLACEMENT_3D ( 'NONE', #323, #186, #305 ) ;
#16 = DIRECTION ( 'NONE',  ( -3.491481338843133355E-15, 1.224646799147353207E-16, -1.000000000000000000 ) ) ;
#17 = APPROVAL_PERSON_ORGANIZATION ( #176, #208, #337 ) ;
#18 = CARTESIAN_POINT ( 'NONE',  ( 0.0000000000000000000, 0.0000000000000000000, 0.0000000000000000000 ) ) ;
#19 = ORIENTED_EDGE ( 'NONE', *, *, #301, .T. ) ;
#20 = PERSON_AND_ORGANIZATION ( #154, #207 ) ;
#21 = AXIS2_PLACEMENT_3D ( 'NONE', #334, #307, #38 ) ;
#22 = EDGE_LOOP ( 'NONE', ( #291 ) ) ;
#23 = ORIENTED_EDGE ( 'NONE', *, *, #191, .F. ) ;
#24 = EDGE_LOOP ( 'NONE', ( #237 ) ) ;
#25 = DIRECTION ( 'NONE',  ( 4.275831445896958607E-31, 1.000000000000000000, 1.224646799147353207E-16 ) ) ;
#26 = LOCAL_TIME ( 11, 23, 10.00000000000000000, #77 ) ;
#27 = PRODUCT ( '384658', '384658', '', ( #67 ) ) ;
#28 = EDGE_LOOP ( 'NONE', ( #75 ) ) ;
#29 = PERSON_AND_ORGANIZATION ( #154, #207 ) ;
#30 = CARTESIAN_POINT ( 'NONE',  ( 2.618611004132350016E-14, -9.184850993605147944E-16, 7.500000000000000000 ) ) ;
#31 = DIRECTION ( 'NONE',  ( -3.491481338843133355E-15, 1.224646799147353207E-16, -1.000000000000000000 ) ) ;
#32 = APPLICATION_PROTOCOL_DEFINITION ( 'international standard', 'config_control_design', 1994, #258 ) ;
#33 = FACE_BOUND ( 'NONE', #128, .T. ) ;
#34 = FACE_OUTER_BOUND ( 'NONE', #182, .T. ) ;
#35 = APPROVAL_PERSON_ORGANIZATION ( #184, #10, #231 ) ;
#36 = CYLINDRICAL_SURFACE ( 'NONE', #317, 2.499999999999999556 ) ;
#37 = DIRECTION ( 'NONE',  ( 3.491481338843133355E-15, -1.224646799147353207E-16, 1.000000000000000000 ) ) ;
#38 = DIRECTION ( 'NONE',  ( 4.275831445896959482E-31, 1.000000000000000000, 1.224646799147353207E-16 ) ) ;
#39 = CIRCLE ( 'NONE', #321, 2.582852747271952687 ) ;
#40 = CARTESIAN_POINT ( 'NONE',  ( 5.097191119013071837E-14, 3.949999999999997957, 14.59893559305682587 ) ) ;
#41 = DIRECTION ( 'NONE',  ( 4.275831445896958607E-31, 1.000000000000000000, 1.224646799147353207E-16 ) ) ;
#42 = EDGE_CURVE ( 'NONE', #331, #331, #144, .T. ) ;
#43 = PERSON_AND_ORGANIZATION_ROLE ( 'creator' ) ;
#44 = PERSON_AND_ORGANIZATION_ROLE ( 'design_supplier' ) ;
#45 = DIRECTION ( 'NONE',  ( -3.491481338843133355E-15, 1.224646799147353207E-16, -1.000000000000000000 ) ) ;
#46 = EDGE_LOOP ( 'NONE', ( #73 ) ) ;
#47 = FACE_OUTER_BOUND ( 'NONE', #209, .T. ) ;
#48 = ORIENTED_EDGE ( 'NONE', *, *, #130, .F. ) ;
#49 = CARTESIAN_POINT ( 'NONE',  ( 0.0000000000000000000, 0.0000000000000000000, 0.0000000000000000000 ) ) ;
#50 = DIRECTION ( 'NONE',  ( -3.491481338843133355E-15, 1.224646799147353207E-16, -1.000000000000000000 ) ) ;
#51 = CALENDAR_DATE ( 2022, 11, 1 ) ;
#52 = DIRECTION ( 'NONE',  ( -4.275831445896958607E-31, -1.000000000000000000, -1.224646799147353207E-16 ) ) ;
#53 = DIRECTION ( 'NONE',  ( 3.491481338843133355E-15, -1.224646799147353207E-16, 1.000000000000000000 ) ) ;
#54 = AXIS2_PLACEMENT_3D ( 'NONE', #82, #213, #302 ) ;
#55 = AXIS2_PLACEMENT_3D ( 'NONE', #49, #243, #4 ) ;
#56 = CARTESIAN_POINT ( 'NONE',  ( 2.234548056859605347E-13, -7.837739514543060526E-15, 64.00000000000000000 ) ) ;
#57 = FACE_BOUND ( 'NONE', #253, .T. ) ;
#58 = CC_DESIGN_PERSON_AND_ORGANIZATION_ASSIGNMENT ( #20, #339, ( #297 ) ) ;
#59 = FACE_OUTER_BOUND ( 'NONE', #46, .T. ) ;
#60 = AXIS2_PLACEMENT_3D ( 'NONE', #244, #136, #11 ) ;
#61 = EDGE_CURVE ( 'NONE', #143, #143, #312, .T. ) ;
#62 = FACE_OUTER_BOUND ( 'NONE', #238, .T. ) ;
#63 = CARTESIAN_POINT ( 'NONE',  ( 6.494155290248229303E-14, 3.999999999999992450, 18.60000000000000142 ) ) ;
#64 = AXIS2_PLACEMENT_3D ( 'NONE', #97, #341, #298 ) ;
#65 = CARTESIAN_POINT ( 'NONE',  ( 3.491481338843133986E-14, -8.673617379884035472E-16, 10.00000000000000178 ) ) ;
#66 = CC_DESIGN_PERSON_AND_ORGANIZATION_ASSIGNMENT ( #272, #103, ( #27 ) ) ;
#67 = MECHANICAL_CONTEXT ( 'NONE', #142, 'mechanical' ) ;
#68 = COORDINATED_UNIVERSAL_TIME_OFFSET ( 1, 0, .AHEAD. ) ;
#69 = DIRECTION ( 'NONE',  ( 0.0000000000000000000, 1.000000000000000000, 0.0000000000000000000 ) ) ;
#70 = EDGE_CURVE ( 'NONE', #86, #86, #149, .T. ) ;
#71 = AXIS2_PLACEMENT_3D ( 'NONE', #30, #165, #1 ) ;
#72 = EDGE_LOOP ( 'NONE', ( #131 ) ) ;
#73 = ORIENTED_EDGE ( 'NONE', *, *, #217, .T. ) ;
#74 = ORIENTED_EDGE ( 'NONE', *, *, #70, .F. ) ;
#75 = ORIENTED_EDGE ( 'NONE', *, *, #217, .F. ) ;
#76 = AXIS2_PLACEMENT_3D ( 'NONE', #264, #259, #126 ) ;
#77 = COORDINATED_UNIVERSAL_TIME_OFFSET ( 1, 0, .AHEAD. ) ;
#78 = CARTESIAN_POINT ( 'NONE',  ( 3.636665296566635361E-14, -1.275570476480408374E-15, 10.41582338163550681 ) ) ;
#79 = PERSON_AND_ORGANIZATION ( #154, #207 ) ;
#80 = CARTESIAN_POINT ( 'NONE',  ( 2.234548056859605347E-13, -7.837739514543060526E-15, 64.00000000000000000 ) ) ;
#81 = ADVANCED_FACE ( 'NONE', ( #95, #47 ), #174, .T. ) ;
#82 = CARTESIAN_POINT ( 'NONE',  ( 6.494155290248229303E-14, 5.961545136080876601E-32, 18.60000000000000142 ) ) ;
#83 = AXIS2_PLACEMENT_3D ( 'NONE', #102, #100, #69 ) ;
#84 = DIRECTION ( 'NONE',  ( -4.275831445896958607E-31, -1.000000000000000000, -1.224646799147353207E-16 ) ) ;
#85 = CARTESIAN_POINT ( 'NONE',  ( 3.700970219173720726E-14, 2.550569252318163275E-31, 10.59999999999999787 ) ) ;
#86 = VERTEX_POINT ( 'NONE', #13 ) ;
#87 = CARTESIAN_POINT ( 'NONE',  ( 3.700970219173721357E-14, 2.582852747271951355, 10.59999999999999964 ) ) ;
#88 = DIRECTION ( 'NONE',  ( 0.0000000000000000000, 1.000000000000000000, 0.0000000000000000000 ) ) ;
#89 = ADVANCED_BREP_SHAPE_REPRESENTATION ( '384658', ( #91, #183, #55 ), #116 ) ;
#90 = VERTEX_POINT ( 'NONE', #113 ) ;
#91 = MANIFOLD_SOLID_BREP ( 'Corps-Déplacer/Copier1[1]', #241 ) ;
#92 = AXIS2_PLACEMENT_3D ( 'NONE', #299, #164, #132 ) ;
#93 = DIRECTION ( 'NONE',  ( 4.275831445896958607E-31, 1.000000000000000000, 1.224646799147353207E-16 ) ) ;
#94 = SECURITY_CLASSIFICATION_LEVEL ( 'unclassified' ) ;
#95 = FACE_OUTER_BOUND ( 'NONE', #24, .T. ) ;
#96 = ADVANCED_FACE ( 'NONE', ( #216, #104 ), #325, .T. ) ;
#97 = CARTESIAN_POINT ( 'NONE',  ( -4.275851038235247474E-31, 1.499766654729053333E-32, -1.224652410616064475E-16 ) ) ;
#98 = CC_DESIGN_DATE_AND_TIME_ASSIGNMENT ( #315, #151, ( #256 ) ) ;
#99 = CIRCLE ( 'NONE', #71, 2.500000000000000000 ) ;
#100 = DIRECTION ( 'NONE',  ( -3.491481338843133355E-15, 1.224646799147353207E-16, -1.000000000000000000 ) ) ;
#101 = ORIENTED_EDGE ( 'NONE', *, *, #330, .T. ) ;
#102 = CARTESIAN_POINT ( 'NONE',  ( 3.700970219173720726E-14, -1.298125607096194188E-15, 10.59999999999999787 ) ) ;
#103 = PERSON_AND_ORGANIZATION_ROLE ( 'design_owner' ) ;
#104 = FACE_OUTER_BOUND ( 'NONE', #125, .T. ) ;
#105 = AXIS2_PLACEMENT_3D ( 'NONE', #8, #271, #161 ) ;
#106 = CC_DESIGN_SECURITY_CLASSIFICATION ( #256, ( #297 ) ) ;
#107 = COORDINATED_UNIVERSAL_TIME_OFFSET ( 1, 0, .AHEAD. ) ;
#108 = FACE_OUTER_BOUND ( 'NONE', #319, .T. ) ;
#109 = FACE_BOUND ( 'NONE', #155, .T. ) ;
#110 = AXIS2_PLACEMENT_3D ( 'NONE', #56, #192, #189 ) ;
#111 = DIRECTION ( 'NONE',  ( -3.491481338843133355E-15, 1.224646799147353207E-16, -1.000000000000000000 ) ) ;
#112 = CARTESIAN_POINT ( 'NONE',  ( 3.700970219173721357E-14, -1.298125607096194385E-15, 10.59999999999999964 ) ) ;
#113 = CARTESIAN_POINT ( 'NONE',  ( 2.618611004132350016E-14, 2.499999999999999112, 7.500000000000000000 ) ) ;
#114 = ORIENTED_EDGE ( 'NONE', *, *, #130, .T. ) ;
#115 = AXIS2_PLACEMENT_3D ( 'NONE', #12, #37, #227 ) ;
#116 =( GEOMETRIC_REPRESENTATION_CONTEXT ( 3 ) GLOBAL_UNCERTAINTY_ASSIGNED_CONTEXT ( ( #210 ) ) GLOBAL_UNIT_ASSIGNED_CONTEXT ( ( #282, #254, #147 ) ) REPRESENTATION_CONTEXT ( 'NONE', 'WORKASPACE' ) );
#117 = FACE_BOUND ( 'NONE', #153, .T. ) ;
#118 = VERTEX_POINT ( 'NONE', #170 ) ;
#119 = EDGE_LOOP ( 'NONE', ( #309 ) ) ;
#120 = CONICAL_SURFACE ( 'NONE', #275, 2.582852747271952687, 0.2094395102393175612 ) ;
#121 = LOCAL_TIME ( 11, 23, 10.00000000000000000, #214 ) ;
#122 = APPLICATION_PROTOCOL_DEFINITION ( 'international standard', 'config_control_design', 1994, #142 ) ;
#123 = EDGE_CURVE ( 'NONE', #90, #90, #99, .T. ) ;
#124 = DATE_TIME_ROLE ( 'creation_date' ) ;
#125 = EDGE_LOOP ( 'NONE', ( #316 ) ) ;
#126 = DIRECTION ( 'NONE',  ( 0.0000000000000000000, 1.000000000000000000, 0.0000000000000000000 ) ) ;
#127 = AXIS2_PLACEMENT_3D ( 'NONE', #162, #328, #84 ) ;
#128 = EDGE_LOOP ( 'NONE', ( #318 ) ) ;
#129 = PRODUCT_DEFINITION_SHAPE ( 'NONE', 'NONE',  #202 ) ;
#130 = EDGE_CURVE ( 'NONE', #333, #333, #3, .T. ) ;
#131 = ORIENTED_EDGE ( 'NONE', *, *, #324, .T. ) ;
#132 = DIRECTION ( 'NONE',  ( 0.0000000000000000000, 1.000000000000000000, 0.0000000000000000000 ) ) ;
#133 = FACE_OUTER_BOUND ( 'NONE', #236, .T. ) ;
#134 = ADVANCED_FACE ( 'NONE', ( #57, #34 ), #248, .F. ) ;
#135 = APPROVAL_ROLE ( '' ) ;
#136 = DIRECTION ( 'NONE',  ( -3.491481338843133355E-15, 1.224646799147353207E-16, -1.000000000000000000 ) ) ;
#137 = DIRECTION ( 'NONE',  ( 3.491481338843133355E-15, -1.224646799147353207E-16, 1.000000000000000000 ) ) ;
#138 = DIRECTION ( 'NONE',  ( -3.491481338843133355E-15, 1.224646799147353207E-16, -1.000000000000000000 ) ) ;
#139 = AXIS2_PLACEMENT_3D ( 'NONE', #343, #50, #232 ) ;
#140 = EDGE_CURVE ( 'NONE', #172, #172, #199, .T. ) ;
#141 = FACE_OUTER_BOUND ( 'NONE', #119, .T. ) ;
#142 = APPLICATION_CONTEXT ( 'configuration controlled 3d designs of mechanical parts and assemblies' ) ;
#143 = VERTEX_POINT ( 'NONE', #63 ) ;
#144 = CIRCLE ( 'NONE', #139, 2.500000000000000000 ) ;
#145 = CIRCLE ( 'NONE', #181, 4.000000000000000888 ) ;
#146 = CARTESIAN_POINT ( 'NONE',  ( 2.137876538271898504E-31, 2.499999999999999112, 6.123121766362532060E-17 ) ) ;
#147 =( NAMED_UNIT ( * ) SI_UNIT ( $, .STERADIAN. ) SOLID_ANGLE_UNIT ( ) );
#148 = APPROVAL_STATUS ( 'not_yet_approved' ) ;
#149 = CIRCLE ( 'NONE', #83, 3.100000000000000089 ) ;
#150 = LOCAL_TIME ( 11, 23, 10.00000000000000000, #68 ) ;
#151 = DATE_TIME_ROLE ( 'classification_date' ) ;
#152 = FACE_OUTER_BOUND ( 'NONE', #72, .T. ) ;
#153 = EDGE_LOOP ( 'NONE', ( #74 ) ) ;
#154 = PERSON ( 'UNSPECIFIED', 'UNSPECIFIED', 'UNSPECIFIED', ('UNSPECIFIED'), ('UNSPECIFIED'), ('UNSPECIFIED') ) ;
#155 = EDGE_LOOP ( 'NONE', ( #48 ) ) ;
#156 = ORIENTED_EDGE ( 'NONE', *, *, #324, .F. ) ;
#157 = COORDINATED_UNIVERSAL_TIME_OFFSET ( 1, 0, .AHEAD. ) ;
#158 = CC_DESIGN_DATE_AND_TIME_ASSIGNMENT ( #269, #124, ( #202 ) ) ;
#159 = FACE_OUTER_BOUND ( 'NONE', #320, .T. ) ;
#160 = APPROVAL_STATUS ( 'not_yet_approved' ) ;
#161 = DIRECTION ( 'NONE',  ( 4.275831445896958607E-31, 1.000000000000000000, 1.224646799147353207E-16 ) ) ;
#162 = CARTESIAN_POINT ( 'NONE',  ( 2.618611004132350016E-14, 1.874699728327320915E-32, 7.500000000000000000 ) ) ;
#163 = CC_DESIGN_PERSON_AND_ORGANIZATION_ASSIGNMENT ( #286, #44, ( #297 ) ) ;
#164 = DIRECTION ( 'NONE',  ( -3.491481338843133355E-15, 1.224646799147353207E-16, -1.000000000000000000 ) ) ;
#165 = DIRECTION ( 'NONE',  ( -3.491481338843133355E-15, 1.224646799147353207E-16, -1.000000000000000000 ) ) ;
#166 = DIRECTION ( 'NONE',  ( -3.491481338843133355E-15, 1.224646799147353207E-16, -1.000000000000000000 ) ) ;
#167 = AXIS2_PLACEMENT_3D ( 'NONE', #306, #188, #52 ) ;
#168 = CC_DESIGN_APPROVAL ( #208, ( #297 ) ) ;
#169 = FACE_OUTER_BOUND ( 'NONE', #288, .T. ) ;
#170 = CARTESIAN_POINT ( 'NONE',  ( 6.494155290248229303E-14, 3.949999999999997957, 18.60000000000000142 ) ) ;
#171 = CC_DESIGN_PERSON_AND_ORGANIZATION_ASSIGNMENT ( #79, #290, ( #256 ) ) ;
#172 = VERTEX_POINT ( 'NONE', #193 ) ;
#173 = CALENDAR_DATE ( 2022, 11, 1 ) ;
#174 = CYLINDRICAL_SURFACE ( 'NONE', #266, 2.500000000000000444 ) ;
#175 = CONICAL_SURFACE ( 'NONE', #180, 3.200000000000001066, 0.7853981633974512766 ) ;
#176 = PERSON_AND_ORGANIZATION ( #154, #207 ) ;
#177 = ORIENTED_EDGE ( 'NONE', *, *, #301, .F. ) ;
#178 = EDGE_LOOP ( 'NONE', ( #204 ) ) ;
#179 = ORIENTED_EDGE ( 'NONE', *, *, #70, .T. ) ;
#180 = AXIS2_PLACEMENT_3D ( 'NONE', #80, #111, #190 ) ;
#181 = AXIS2_PLACEMENT_3D ( 'NONE', #226, #281, #222 ) ;
#182 = EDGE_LOOP ( 'NONE', ( #196 ) ) ;
#183 = MANIFOLD_SOLID_BREP ( 'Corps-Déplacer/Copier1[2]', #219 ) ;
#184 = PERSON_AND_ORGANIZATION ( #154, #207 ) ;
#185 = EDGE_CURVE ( 'NONE', #283, #283, #249, .T. ) ;
#186 = DIRECTION ( 'NONE',  ( -3.491481338843133355E-15, 1.224646799147353207E-16, -1.000000000000000000 ) ) ;
#187 = CALENDAR_DATE ( 2022, 11, 1 ) ;
#188 = DIRECTION ( 'NONE',  ( 3.491481338843133355E-15, -1.224646799147353207E-16, 1.000000000000000000 ) ) ;
#189 = DIRECTION ( 'NONE',  ( 0.0000000000000000000, 1.000000000000000000, 0.0000000000000000000 ) ) ;
#190 = DIRECTION ( 'NONE',  ( 0.0000000000000000000, 1.000000000000000000, 0.0000000000000000000 ) ) ;
#191 = EDGE_CURVE ( 'NONE', #118, #118, #230, .T. ) ;
#192 = DIRECTION ( 'NONE',  ( -3.491481338843133355E-15, 1.224646799147353207E-16, -1.000000000000000000 ) ) ;
#193 = CARTESIAN_POINT ( 'NONE',  ( 2.234548056859605347E-13, 3.199999999999993072, 64.00000000000000000 ) ) ;
#194 = LOCAL_TIME ( 11, 23, 10.00000000000000000, #157 ) ;
#195 = VERTEX_POINT ( 'NONE', #146 ) ;
#196 = ORIENTED_EDGE ( 'NONE', *, *, #61, .T. ) ;
#197 = DIRECTION ( 'NONE',  ( -3.491481338843133355E-15, 1.224646799147353207E-16, -1.000000000000000000 ) ) ;
#198 = CARTESIAN_POINT ( 'NONE',  ( 2.618611004132350016E-14, 2.499999999999999112, 7.500000000000000000 ) ) ;
#199 = CIRCLE ( 'NONE', #110, 3.200000000000001066 ) ;
#200 = CC_DESIGN_APPROVAL ( #247, ( #256 ) ) ;
#201 = PLANE ( 'NONE',  #260 ) ;
#202 = PRODUCT_DEFINITION ( 'UNKNOWN', '', #297, #294 ) ;
#203 = APPROVAL_STATUS ( 'not_yet_approved' ) ;
#204 = ORIENTED_EDGE ( 'NONE', *, *, #61, .F. ) ;
#205 = APPROVAL_DATE_TIME ( #233, #247 ) ;
#206 = ORIENTED_EDGE ( 'NONE', *, *, #185, .T. ) ;
#207 = ORGANIZATION ( 'UNSPECIFIED', 'UNSPECIFIED', '' ) ;
#208 = APPROVAL ( #148, 'UNSPECIFIED' ) ;
#209 = EDGE_LOOP ( 'NONE', ( #206 ) ) ;
#210 = UNCERTAINTY_MEASURE_WITH_UNIT (LENGTH_MEASURE( 1.000000000000000082E-05 ), #282, 'distance_accuracy_value', 'NONE');
#211 = EDGE_LOOP ( 'NONE', ( #177 ) ) ;
#212 = DATE_AND_TIME ( #51, #150 ) ;
#213 = DIRECTION ( 'NONE',  ( 3.491481338843133355E-15, -1.224646799147353207E-16, 1.000000000000000000 ) ) ;
#214 = COORDINATED_UNIVERSAL_TIME_OFFSET ( 1, 0, .AHEAD. ) ;
#215 = PLANE ( 'NONE',  #127 ) ;
#216 = FACE_OUTER_BOUND ( 'NONE', #28, .T. ) ;
#217 = EDGE_CURVE ( 'NONE', #224, #224, #279, .T. ) ;
#218 = FACE_OUTER_BOUND ( 'NONE', #22, .T. ) ;
#219 = CLOSED_SHELL ( 'NONE', ( #2, #270, #235 ) ) ;
#220 = FACE_OUTER_BOUND ( 'NONE', #293, .T. ) ;
#221 = PRODUCT_RELATED_PRODUCT_CATEGORY ( 'detail', '', ( #27 ) ) ;
#222 = DIRECTION ( 'NONE',  ( 0.0000000000000000000, 1.000000000000000000, 0.0000000000000000000 ) ) ;
#223 = ADVANCED_FACE ( 'NONE', ( #277, #33 ), #175, .T. ) ;
#224 = VERTEX_POINT ( 'NONE', #40 ) ;
#225 = AXIS2_PLACEMENT_3D ( 'NONE', #78, #138, #278 ) ;
#226 = CARTESIAN_POINT ( 'NONE',  ( 2.206616206148860281E-13, -7.739767770611272092E-15, 63.20000000000000284 ) ) ;
#227 = DIRECTION ( 'NONE',  ( 0.0000000000000000000, -1.000000000000000000, 0.0000000000000000000 ) ) ;
#228 = FACE_OUTER_BOUND ( 'NONE', #340, .T. ) ;
#229 = ADVANCED_FACE ( 'NONE', ( #239, #220 ), #329, .F. ) ;
#230 = CIRCLE ( 'NONE', #60, 3.950000000000000178 ) ;
#231 = APPROVAL_ROLE ( '' ) ;
#232 = DIRECTION ( 'NONE',  ( 0.0000000000000000000, 1.000000000000000000, 0.0000000000000000000 ) ) ;
#233 = DATE_AND_TIME ( #261, #194 ) ;
#234 = PLANE ( 'NONE',  #64 ) ;
#235 = ADVANCED_FACE ( 'NONE', ( #218 ), #246, .T. ) ;
#236 = EDGE_LOOP ( 'NONE', ( #19 ) ) ;
#237 = ORIENTED_EDGE ( 'NONE', *, *, #42, .F. ) ;
#238 = EDGE_LOOP ( 'NONE', ( #156 ) ) ;
#239 = FACE_BOUND ( 'NONE', #211, .T. ) ;
#240 = ADVANCED_FACE ( 'NONE', ( #276, #159 ), #273, .T. ) ;
#241 = CLOSED_SHELL ( 'NONE', ( #251, #81, #257, #245, #229, #287, #96, #134, #240, #223, #263 ) ) ;
#242 = CARTESIAN_POINT ( 'NONE',  ( 3.700970219173721357E-14, -1.298125607096194385E-15, 10.59999999999999964 ) ) ;
#243 = DIRECTION ( 'NONE',  ( 0.0000000000000000000, 0.0000000000000000000, 1.000000000000000000 ) ) ;
#244 = CARTESIAN_POINT ( 'NONE',  ( 6.494155290248229303E-14, -2.277843046414077148E-15, 18.60000000000000142 ) ) ;
#245 = ADVANCED_FACE ( 'NONE', ( #109, #133 ), #120, .T. ) ;
#246 = PLANE ( 'NONE',  #167 ) ;
#247 = APPROVAL ( #160, 'UNSPECIFIED' ) ;
#248 = PLANE ( 'NONE',  #54 ) ;
#249 = CIRCLE ( 'NONE', #15, 2.500000000000000444 ) ;
#250 = CARTESIAN_POINT ( 'NONE',  ( 2.234548056859605347E-13, 2.399615652258961499E-32, 64.00000000000000000 ) ) ;
#251 = ADVANCED_FACE ( 'NONE', ( #108 ), #215, .F. ) ;
#252 = DIRECTION ( 'NONE',  ( -3.491481338843133355E-15, 1.224646799147353207E-16, -1.000000000000000000 ) ) ;
#253 = EDGE_LOOP ( 'NONE', ( #23 ) ) ;
#254 =( NAMED_UNIT ( * ) PLANE_ANGLE_UNIT ( ) SI_UNIT ( $, .RADIAN. ) );
#255 = TOROIDAL_SURFACE ( 'NONE', #342, 4.500000000000000000, 2.000000000000000000 ) ;
#256 = SECURITY_CLASSIFICATION ( '', '', #94 ) ;
#257 = ADVANCED_FACE ( 'NONE', ( #228, #335 ), #255, .F. ) ;
#258 = APPLICATION_CONTEXT ( 'configuration controlled 3d designs of mechanical parts and assemblies' ) ;
#259 = DIRECTION ( 'NONE',  ( -3.491481338843133355E-15, 1.224646799147353207E-16, -1.000000000000000000 ) ) ;
#260 = AXIS2_PLACEMENT_3D ( 'NONE', #250, #252, #41 ) ;
#261 = CALENDAR_DATE ( 2022, 11, 1 ) ;
#262 = ORIENTED_EDGE ( 'NONE', *, *, #42, .T. ) ;
#263 = ADVANCED_FACE ( 'NONE', ( #169 ), #201, .F. ) ;
#264 = CARTESIAN_POINT ( 'NONE',  ( 6.494155290248229303E-14, -2.277843046414077148E-15, 18.60000000000000142 ) ) ;
#265 = CARTESIAN_POINT ( 'NONE',  ( 0.0000000000000000000, 0.0000000000000000000, 0.0000000000000000000 ) ) ;
#266 = AXIS2_PLACEMENT_3D ( 'NONE', #265, #45, #25 ) ;
#267 = CC_DESIGN_APPROVAL ( #10, ( #202 ) ) ;
#268 = EDGE_LOOP ( 'NONE', ( #314 ) ) ;
#269 = DATE_AND_TIME ( #187, #9 ) ;
#270 = ADVANCED_FACE ( 'NONE', ( #62, #141 ), #36, .T. ) ;
#271 = DIRECTION ( 'NONE',  ( -3.491481338843133355E-15, 1.224646799147353207E-16, -1.000000000000000000 ) ) ;
#272 = PERSON_AND_ORGANIZATION ( #154, #207 ) ;
#273 = CYLINDRICAL_SURFACE ( 'NONE', #105, 3.999999999999998224 ) ;
#274 = APPROVAL_DATE_TIME ( #212, #10 ) ;
#275 = AXIS2_PLACEMENT_3D ( 'NONE', #242, #53, #5 ) ;
#276 = FACE_OUTER_BOUND ( 'NONE', #178, .T. ) ;
#277 = FACE_OUTER_BOUND ( 'NONE', #338, .T. ) ;
#278 = DIRECTION ( 'NONE',  ( 0.0000000000000000000, 1.000000000000000000, 0.0000000000000000000 ) ) ;
#279 = CIRCLE ( 'NONE', #92, 3.949999999999999734 ) ;
#280 = CARTESIAN_POINT ( 'NONE',  ( 3.491481338843133355E-14, 2.499999999999999112, 10.00000000000000000 ) ) ;
#281 = DIRECTION ( 'NONE',  ( -3.491481338843133355E-15, 1.224646799147353207E-16, -1.000000000000000000 ) ) ;
#282 =( LENGTH_UNIT ( ) NAMED_UNIT ( * ) SI_UNIT ( .MILLI., .METRE. ) );
#283 = VERTEX_POINT ( 'NONE', #280 ) ;
#284 = CARTESIAN_POINT ( 'NONE',  ( 2.206616206148860281E-13, 3.999999999999993339, 63.20000000000000284 ) ) ;
#285 = PERSON_AND_ORGANIZATION ( #154, #207 ) ;
#286 = PERSON_AND_ORGANIZATION ( #154, #207 ) ;
#287 = ADVANCED_FACE ( 'NONE', ( #117, #59 ), #327, .T. ) ;
#288 = EDGE_LOOP ( 'NONE', ( #14 ) ) ;
#289 = AXIS2_PLACEMENT_3D ( 'NONE', #304, #31, #326 ) ;
#290 = PERSON_AND_ORGANIZATION_ROLE ( 'classification_officer' ) ;
#291 = ORIENTED_EDGE ( 'NONE', *, *, #123, .F. ) ;
#292 = ORIENTED_EDGE ( 'NONE', *, *, #330, .F. ) ;
#293 = EDGE_LOOP ( 'NONE', ( #179 ) ) ;
#294 = DESIGN_CONTEXT ( 'detailed design', #258, 'design' ) ;
#295 = CC_DESIGN_PERSON_AND_ORGANIZATION_ASSIGNMENT ( #285, #43, ( #202 ) ) ;
#296 = AXIS2_PLACEMENT_3D ( 'NONE', #85, #137, #7 ) ;
#297 = PRODUCT_DEFINITION_FORMATION_WITH_SPECIFIED_SOURCE ( 'ANY', '', #27, .NOT_KNOWN. ) ;
#298 = DIRECTION ( 'NONE',  ( -4.275831445896958607E-31, -1.000000000000000000, -1.224646799147353207E-16 ) ) ;
#299 = CARTESIAN_POINT ( 'NONE',  ( 5.097191119013071837E-14, -1.787853974499540849E-15, 14.59893559305682587 ) ) ;
#300 = SHAPE_DEFINITION_REPRESENTATION ( #129, #89 ) ;
#301 = EDGE_CURVE ( 'NONE', #332, #332, #39, .T. ) ;
#302 = DIRECTION ( 'NONE',  ( -4.275831445896958607E-31, -1.000000000000000000, -1.224646799147353207E-16 ) ) ;
#303 = APPROVAL_PERSON_ORGANIZATION ( #29, #247, #135 ) ;
#304 = CARTESIAN_POINT ( 'NONE',  ( 0.0000000000000000000, 0.0000000000000000000, 0.0000000000000000000 ) ) ;
#305 = DIRECTION ( 'NONE',  ( 0.0000000000000000000, 1.000000000000000000, 0.0000000000000000000 ) ) ;
#306 = CARTESIAN_POINT ( 'NONE',  ( 2.618611004132350016E-14, 1.874699728327320915E-32, 7.500000000000000000 ) ) ;
#307 = DIRECTION ( 'NONE',  ( -3.491481338843133355E-15, 1.224646799147353207E-16, -1.000000000000000000 ) ) ;
#308 = VERTEX_POINT ( 'NONE', #284 ) ;
#309 = ORIENTED_EDGE ( 'NONE', *, *, #123, .T. ) ;
#310 = DIRECTION ( 'NONE',  ( 4.275831445896958607E-31, 1.000000000000000000, 1.224646799147353207E-16 ) ) ;
#311 = CARTESIAN_POINT ( 'NONE',  ( 3.636665296566635361E-14, 2.543704798532383293, 10.41582338163550681 ) ) ;
#312 = CIRCLE ( 'NONE', #76, 3.999999999999994671 ) ;
#313 = CALENDAR_DATE ( 2022, 11, 1 ) ;
#314 = ORIENTED_EDGE ( 'NONE', *, *, #185, .F. ) ;
#315 = DATE_AND_TIME ( #313, #26 ) ;
#316 = ORIENTED_EDGE ( 'NONE', *, *, #191, .T. ) ;
#317 = AXIS2_PLACEMENT_3D ( 'NONE', #18, #16, #310 ) ;
#318 = ORIENTED_EDGE ( 'NONE', *, *, #140, .T. ) ;
#319 = EDGE_LOOP ( 'NONE', ( #262 ) ) ;
#320 = EDGE_LOOP ( 'NONE', ( #101 ) ) ;
#321 = AXIS2_PLACEMENT_3D ( 'NONE', #112, #166, #88 ) ;
#322 = DATE_AND_TIME ( #173, #121 ) ;
#323 = CARTESIAN_POINT ( 'NONE',  ( 3.491481338843133355E-14, -1.224646799147353256E-15, 10.00000000000000000 ) ) ;
#324 = EDGE_CURVE ( 'NONE', #195, #195, #336, .T. ) ;
#325 = CYLINDRICAL_SURFACE ( 'NONE', #289, 3.950000000000000178 ) ;
#326 = DIRECTION ( 'NONE',  ( 4.275831445896958607E-31, 1.000000000000000000, 1.224646799147353207E-16 ) ) ;
#327 = CONICAL_SURFACE ( 'NONE', #115, 3.949999999999999734, 0.2094395102393122599 ) ;
#328 = DIRECTION ( 'NONE',  ( 3.491481338843133355E-15, -1.224646799147353207E-16, 1.000000000000000000 ) ) ;
#329 = PLANE ( 'NONE',  #296 ) ;
#330 = EDGE_CURVE ( 'NONE', #308, #308, #145, .T. ) ;
#331 = VERTEX_POINT ( 'NONE', #198 ) ;
#332 = VERTEX_POINT ( 'NONE', #87 ) ;
#333 = VERTEX_POINT ( 'NONE', #311 ) ;
#334 = CARTESIAN_POINT ( 'NONE',  ( -8.551702076470494947E-31, 2.999533309458106666E-32, -2.449304821232128949E-16 ) ) ;
#335 = FACE_OUTER_BOUND ( 'NONE', #268, .T. ) ;
#336 = CIRCLE ( 'NONE', #21, 2.499999999999999112 ) ;
#337 = APPROVAL_ROLE ( '' ) ;
#338 = EDGE_LOOP ( 'NONE', ( #292 ) ) ;
#339 = PERSON_AND_ORGANIZATION_ROLE ( 'creator' ) ;
#340 = EDGE_LOOP ( 'NONE', ( #114 ) ) ;
#341 = DIRECTION ( 'NONE',  ( 3.491481338843133355E-15, -1.224646799147353207E-16, 1.000000000000000000 ) ) ;
#342 = AXIS2_PLACEMENT_3D ( 'NONE', #65, #197, #93 ) ;
#343 = CARTESIAN_POINT ( 'NONE',  ( 2.618611004132350016E-14, -9.184850993605147944E-16, 7.500000000000000000 ) ) ;
ENDSEC;
END-ISO-10303-21;
