ISO-10303-21;
HEADER;
FILE_DESCRIPTION (( 'STEP AP203' ),
    '1' );
FILE_NAME ('384657.step',
    '2022-01-11T10:23:10',
    ( '' ),
    ( '' ),
    'SwSTEP 2.0',
    'SolidWorks 2019',
    '' );
FILE_SCHEMA (( 'CONFIG_CONTROL_DESIGN' ));
ENDSEC;

DATA;
#1 = CC_DESIGN_APPROVAL ( #277, ( #129 ) ) ;
#2 = CARTESIAN_POINT ( 'NONE',  ( 2.094888803305880013E-14, -6.505213034913026604E-16, 6.000000000000000000 ) ) ;
#3 = FACE_OUTER_BOUND ( 'NONE', #26, .T. ) ;
#4 = CYLINDRICAL_SURFACE ( 'NONE', #68, 2.000000000000000000 ) ;
#5 = CONICAL_SURFACE ( 'NONE', #179, 2.649999999999999911, 0.2094395102393125374 ) ;
#6 = FACE_OUTER_BOUND ( 'NONE', #205, .T. ) ;
#7 = VERTEX_POINT ( 'NONE', #125 ) ;
#8 = CARTESIAN_POINT ( 'NONE',  ( 6.598899730413522673E-14, 3.999999999999993339, 18.89999999999999858 ) ) ;
#9 = CIRCLE ( 'NONE', #279, 3.950000000000000178 ) ;
#10 = DIRECTION ( 'NONE',  ( -3.491481338843133355E-15, 1.239175553629613578E-16, -1.000000000000000000 ) ) ;
#11 = DIRECTION ( 'NONE',  ( -3.491481338843133355E-15, 1.239175553629613578E-16, -1.000000000000000000 ) ) ;
#12 = DIRECTION ( 'NONE',  ( -3.491481338843133355E-15, 1.239175553629613578E-16, -1.000000000000000000 ) ) ;
#13 = CIRCLE ( 'NONE', #149, 2.000000000000000444 ) ;
#14 = DIRECTION ( 'NONE',  ( 1.000000000000000000, 0.0000000000000000000, 0.0000000000000000000 ) ) ;
#15 = COORDINATED_UNIVERSAL_TIME_OFFSET ( 1, 0, .AHEAD. ) ;
#16 = EDGE_LOOP ( 'NONE', ( #142 ) ) ;
#17 = CALENDAR_DATE ( 2022, 11, 1 ) ;
#18 = PERSON_AND_ORGANIZATION ( #267, #103 ) ;
#19 = ORIENTED_EDGE ( 'NONE', *, *, #216, .F. ) ;
#20 = APPROVAL_STATUS ( 'not_yet_approved' ) ;
#21 = DESIGN_CONTEXT ( 'detailed design', #73, 'design' ) ;
#22 = ADVANCED_FACE ( 'NONE', ( #3, #100 ), #172, .T. ) ;
#23 = AXIS2_PLACEMENT_3D ( 'NONE', #163, #41, #14 ) ;
#24 = CARTESIAN_POINT ( 'NONE',  ( 2.094888803305880013E-14, 1.499759782661856239E-32, 6.000000000000000000 ) ) ;
#25 = FACE_OUTER_BOUND ( 'NONE', #247, .T. ) ;
#26 = EDGE_LOOP ( 'NONE', ( #186 ) ) ;
#27 = DIRECTION ( 'NONE',  ( 0.0000000000000000000, 1.000000000000000000, 0.0000000000000000000 ) ) ;
#28 = AXIS2_PLACEMENT_3D ( 'NONE', #289, #178, #240 ) ;
#29 = CC_DESIGN_PERSON_AND_ORGANIZATION_ASSIGNMENT ( #183, #62, ( #226 ) ) ;
#30 = DIRECTION ( 'NONE',  ( 3.491481338843133355E-15, -1.224646799147353207E-16, 1.000000000000000000 ) ) ;
#31 = CYLINDRICAL_SURFACE ( 'NONE', #28, 3.999999999999998224 ) ;
#32 = DIRECTION ( 'NONE',  ( 0.0000000000000000000, 1.000000000000000000, 0.0000000000000000000 ) ) ;
#33 = CIRCLE ( 'NONE', #127, 4.000000000000000888 ) ;
#34 = CARTESIAN_POINT ( 'NONE',  ( 2.206616206148860281E-13, -7.738605470252693215E-15, 63.20000000000000284 ) ) ;
#35 = CARTESIAN_POINT ( 'NONE',  ( 2.206616206148860281E-13, -7.738605470252693215E-15, 63.20000000000000284 ) ) ;
#36 = ADVANCED_FACE ( 'NONE', ( #256 ), #51, .T. ) ;
#37 = CARTESIAN_POINT ( 'NONE',  ( 2.234548056859605347E-13, 3.199999999999993072, 64.00000000000000000 ) ) ;
#38 = AXIS2_PLACEMENT_3D ( 'NONE', #230, #258, #50 ) ;
#39 = PERSON_AND_ORGANIZATION_ROLE ( 'creator' ) ;
#40 = ADVANCED_FACE ( 'NONE', ( #212 ), #193, .F. ) ;
#41 = DIRECTION ( 'NONE',  ( 0.0000000000000000000, 0.0000000000000000000, 1.000000000000000000 ) ) ;
#42 = EDGE_LOOP ( 'NONE', ( #302 ) ) ;
#43 = AXIS2_PLACEMENT_3D ( 'NONE', #192, #282, #153 ) ;
#44 = PERSON_AND_ORGANIZATION_ROLE ( 'creator' ) ;
#45 = DIRECTION ( 'NONE',  ( 4.326558321048404892E-31, 1.000000000000000000, 1.239175553629613578E-16 ) ) ;
#46 = DIRECTION ( 'NONE',  ( 3.491481338843133355E-15, -1.224646799147353207E-16, 1.000000000000000000 ) ) ;
#47 = EDGE_LOOP ( 'NONE', ( #138 ) ) ;
#48 = APPROVAL_DATE_TIME ( #95, #260 ) ;
#49 = ADVANCED_FACE ( 'NONE', ( #171, #75 ), #4, .T. ) ;
#50 = DIRECTION ( 'NONE',  ( 0.0000000000000000000, 1.000000000000000000, 0.0000000000000000000 ) ) ;
#51 = PLANE ( 'NONE',  #57 ) ;
#52 = CC_DESIGN_APPROVAL ( #260, ( #226 ) ) ;
#53 = DIRECTION ( 'NONE',  ( 0.0000000000000000000, 1.000000000000000000, 0.0000000000000000000 ) ) ;
#54 = APPLICATION_CONTEXT ( 'configuration controlled 3d designs of mechanical parts and assemblies' ) ;
#55 = CARTESIAN_POINT ( 'NONE',  ( 2.094888803305880013E-14, -6.505213034913026604E-16, 6.000000000000000000 ) ) ;
#56 = DIRECTION ( 'NONE',  ( 4.326558321048404892E-31, 1.000000000000000000, 1.239175553629613578E-16 ) ) ;
#57 = AXIS2_PLACEMENT_3D ( 'NONE', #24, #30, #76 ) ;
#58 = CARTESIAN_POINT ( 'NONE',  ( 6.598899730413522673E-14, -2.249057767673504349E-15, 18.89999999999999858 ) ) ;
#59 = CARTESIAN_POINT ( 'NONE',  ( 6.598899730413522673E-14, 3.999999999999993339, 18.89999999999999858 ) ) ;
#60 = CC_DESIGN_PERSON_AND_ORGANIZATION_ASSIGNMENT ( #243, #61, ( #106 ) ) ;
#61 = PERSON_AND_ORGANIZATION_ROLE ( 'design_owner' ) ;
#62 = PERSON_AND_ORGANIZATION_ROLE ( 'classification_officer' ) ;
#63 = EDGE_LOOP ( 'NONE', ( #90 ) ) ;
#64 = PERSON_AND_ORGANIZATION ( #267, #103 ) ;
#65 = EDGE_LOOP ( 'NONE', ( #170 ) ) ;
#66 = COORDINATED_UNIVERSAL_TIME_OFFSET ( 1, 0, .AHEAD. ) ;
#67 = EDGE_LOOP ( 'NONE', ( #234 ) ) ;
#68 = AXIS2_PLACEMENT_3D ( 'NONE', #147, #99, #194 ) ;
#69 =( NAMED_UNIT ( * ) PLANE_ANGLE_UNIT ( ) SI_UNIT ( $, .RADIAN. ) );
#70 = EDGE_CURVE ( 'NONE', #202, #202, #121, .T. ) ;
#71 = ORIENTED_EDGE ( 'NONE', *, *, #180, .F. ) ;
#72 = FACE_BOUND ( 'NONE', #136, .T. ) ;
#73 = APPLICATION_CONTEXT ( 'configuration controlled 3d designs of mechanical parts and assemblies' ) ;
#74 = LOCAL_TIME ( 11, 23, 10.00000000000000000, #161 ) ;
#75 = FACE_OUTER_BOUND ( 'NONE', #116, .T. ) ;
#76 = DIRECTION ( 'NONE',  ( -4.275831445896958607E-31, -1.000000000000000000, -1.224646799147353207E-16 ) ) ;
#77 = DIRECTION ( 'NONE',  ( 4.275831445896958607E-31, 1.000000000000000000, 1.224646799147353207E-16 ) ) ;
#78 = CARTESIAN_POINT ( 'NONE',  ( 2.094888803305880013E-14, 1.999999999999999112, 6.000000000000000000 ) ) ;
#79 = PRODUCT_DEFINITION_FORMATION_WITH_SPECIFIED_SOURCE ( 'ANY', '', #106, .NOT_KNOWN. ) ;
#80 = DIRECTION ( 'NONE',  ( -3.491481338843133355E-15, 1.239175553629613578E-16, -1.000000000000000000 ) ) ;
#81 = PLANE ( 'NONE',  #209 ) ;
#82 = DIRECTION ( 'NONE',  ( -3.491481338843133355E-15, 1.239175553629613578E-16, -1.000000000000000000 ) ) ;
#83 = CLOSED_SHELL ( 'NONE', ( #40, #176, #36 ) ) ;
#84 = CC_DESIGN_PERSON_AND_ORGANIZATION_ASSIGNMENT ( #246, #39, ( #129 ) ) ;
#85 = FACE_OUTER_BOUND ( 'NONE', #211, .T. ) ;
#86 = COORDINATED_UNIVERSAL_TIME_OFFSET ( 1, 0, .AHEAD. ) ;
#87 = PRODUCT_RELATED_PRODUCT_CATEGORY ( 'detail', '', ( #106 ) ) ;
#88 = PERSON_AND_ORGANIZATION ( #267, #103 ) ;
#89 = DATE_AND_TIME ( #17, #117 ) ;
#90 = ORIENTED_EDGE ( 'NONE', *, *, #216, .T. ) ;
#91 = MECHANICAL_CONTEXT ( 'NONE', #54, 'mechanical' ) ;
#92 = ORIENTED_EDGE ( 'NONE', *, *, #283, .F. ) ;
#93 = AXIS2_PLACEMENT_3D ( 'NONE', #59, #238, #107 ) ;
#94 = DIRECTION ( 'NONE',  ( 0.0000000000000000000, 1.000000000000000000, 0.0000000000000000000 ) ) ;
#95 = DATE_AND_TIME ( #257, #104 ) ;
#96 = DIRECTION ( 'NONE',  ( -3.491481338843133355E-15, 1.224646799147353207E-16, -1.000000000000000000 ) ) ;
#97 = EDGE_CURVE ( 'NONE', #128, #128, #299, .T. ) ;
#98 = APPROVAL_PERSON_ORGANIZATION ( #88, #260, #276 ) ;
#99 = DIRECTION ( 'NONE',  ( -3.491481338843133355E-15, 1.239175553629613578E-16, -1.000000000000000000 ) ) ;
#100 = FACE_OUTER_BOUND ( 'NONE', #47, .T. ) ;
#101 = CARTESIAN_POINT ( 'NONE',  ( 5.207900248524492824E-14, 3.949999999999998845, 14.91601914232220416 ) ) ;
#102 = VERTEX_POINT ( 'NONE', #288 ) ;
#103 = ORGANIZATION ( 'UNSPECIFIED', 'UNSPECIFIED', '' ) ;
#104 = LOCAL_TIME ( 11, 23, 10.00000000000000000, #66 ) ;
#105 = DIRECTION ( 'NONE',  ( 0.0000000000000000000, 1.000000000000000000, 0.0000000000000000000 ) ) ;
#106 = PRODUCT ( '384657', '384657', '', ( #91 ) ) ;
#107 = DIRECTION ( 'NONE',  ( 4.326558321048404892E-31, 1.000000000000000000, 1.239175553629613578E-16 ) ) ;
#108 = DIRECTION ( 'NONE',  ( -3.491481338843133355E-15, 1.239175553629613578E-16, -1.000000000000000000 ) ) ;
#109 = AXIS2_PLACEMENT_3D ( 'NONE', #259, #96, #236 ) ;
#110 = CC_DESIGN_PERSON_AND_ORGANIZATION_ASSIGNMENT ( #204, #44, ( #79 ) ) ;
#111 = APPROVAL_DATE_TIME ( #115, #166 ) ;
#112 = PRODUCT_DEFINITION_SHAPE ( 'NONE', 'NONE',  #129 ) ;
#113 = DATE_TIME_ROLE ( 'classification_date' ) ;
#114 = AXIS2_PLACEMENT_3D ( 'NONE', #217, #80, #32 ) ;
#115 = DATE_AND_TIME ( #251, #74 ) ;
#116 = EDGE_LOOP ( 'NONE', ( #160 ) ) ;
#117 = LOCAL_TIME ( 11, 23, 10.00000000000000000, #159 ) ;
#118 = CARTESIAN_POINT ( 'NONE',  ( 0.0000000000000000000, 0.0000000000000000000, 0.0000000000000000000 ) ) ;
#119 = DIRECTION ( 'NONE',  ( 7.801235217771081471E-31, 1.000000000000000000, 2.195852501236464545E-16 ) ) ;
#120 = ORIENTED_EDGE ( 'NONE', *, *, #70, .T. ) ;
#121 = CIRCLE ( 'NONE', #38, 2.000000000000000000 ) ;
#122 = DIRECTION ( 'NONE',  ( -3.491481338843133355E-15, 1.239175553629613578E-16, -1.000000000000000000 ) ) ;
#123 = CC_DESIGN_DATE_AND_TIME_ASSIGNMENT ( #224, #278, ( #129 ) ) ;
#124 = CARTESIAN_POINT ( 'NONE',  ( 5.207900248524492824E-14, -1.755372599177237689E-15, 14.91601914232220416 ) ) ;
#125 = CARTESIAN_POINT ( 'NONE',  ( 3.072503578181957984E-14, 2.649999999999999023, 8.800000000000000711 ) ) ;
#126 = FACE_BOUND ( 'NONE', #233, .T. ) ;
#127 = AXIS2_PLACEMENT_3D ( 'NONE', #35, #12, #181 ) ;
#128 = VERTEX_POINT ( 'NONE', #268 ) ;
#129 = PRODUCT_DEFINITION ( 'UNKNOWN', '', #79, #21 ) ;
#130 = FACE_OUTER_BOUND ( 'NONE', #227, .T. ) ;
#131 = VERTEX_POINT ( 'NONE', #8 ) ;
#132 = APPROVAL_PERSON_ORGANIZATION ( #64, #277, #222 ) ;
#133 =( NAMED_UNIT ( * ) SI_UNIT ( $, .STERADIAN. ) SOLID_ANGLE_UNIT ( ) );
#134 = ORIENTED_EDGE ( 'NONE', *, *, #252, .T. ) ;
#135 = CALENDAR_DATE ( 2022, 11, 1 ) ;
#136 = EDGE_LOOP ( 'NONE', ( #297 ) ) ;
#137 = SECURITY_CLASSIFICATION_LEVEL ( 'unclassified' ) ;
#138 = ORIENTED_EDGE ( 'NONE', *, *, #187, .F. ) ;
#139 = AXIS2_PLACEMENT_3D ( 'NONE', #146, #143, #27 ) ;
#140 = DATE_AND_TIME ( #298, #158 ) ;
#141 = CC_DESIGN_DATE_AND_TIME_ASSIGNMENT ( #89, #113, ( #226 ) ) ;
#142 = ORIENTED_EDGE ( 'NONE', *, *, #97, .F. ) ;
#143 = DIRECTION ( 'NONE',  ( -3.491481338843133355E-15, 1.239175553629613578E-16, -1.000000000000000000 ) ) ;
#144 = ADVANCED_FACE ( 'NONE', ( #196, #150 ), #281, .T. ) ;
#145 = AXIS2_PLACEMENT_3D ( 'NONE', #118, #286, #77 ) ;
#146 = CARTESIAN_POINT ( 'NONE',  ( 6.598899730413522673E-14, -2.249057767673504349E-15, 18.89999999999999858 ) ) ;
#147 = CARTESIAN_POINT ( 'NONE',  ( 2.094888803305880013E-14, -6.505213034913026604E-16, 6.000000000000000000 ) ) ;
#148 = CARTESIAN_POINT ( 'NONE',  ( 3.072503578181957984E-14, 2.649999999999999023, 8.800000000000000711 ) ) ;
#149 = AXIS2_PLACEMENT_3D ( 'NONE', #201, #218, #53 ) ;
#150 = FACE_BOUND ( 'NONE', #223, .T. ) ;
#151 = CARTESIAN_POINT ( 'NONE',  ( 3.072503578181957984E-14, 1.999999999999999556, 8.800000000000000711 ) ) ;
#152 = FACE_OUTER_BOUND ( 'NONE', #214, .T. ) ;
#153 = DIRECTION ( 'NONE',  ( 0.0000000000000000000, 1.000000000000000000, 0.0000000000000000000 ) ) ;
#154 = CONICAL_SURFACE ( 'NONE', #261, 4.000000000000000888, 0.7853981633974512766 ) ;
#155 = PLANE ( 'NONE',  #93 ) ;
#156 = VERTEX_POINT ( 'NONE', #101 ) ;
#157 = ORIENTED_EDGE ( 'NONE', *, *, #70, .F. ) ;
#158 = LOCAL_TIME ( 11, 23, 10.00000000000000000, #86 ) ;
#159 = COORDINATED_UNIVERSAL_TIME_OFFSET ( 1, 0, .AHEAD. ) ;
#160 = ORIENTED_EDGE ( 'NONE', *, *, #252, .F. ) ;
#161 = COORDINATED_UNIVERSAL_TIME_OFFSET ( 1, 0, .AHEAD. ) ;
#162 = AXIS2_PLACEMENT_3D ( 'NONE', #58, #82, #175 ) ;
#163 = CARTESIAN_POINT ( 'NONE',  ( 0.0000000000000000000, 0.0000000000000000000, 0.0000000000000000000 ) ) ;
#164 = EDGE_LOOP ( 'NONE', ( #134 ) ) ;
#165 = CARTESIAN_POINT ( 'NONE',  ( 3.072503578181957984E-14, -9.974904585075945609E-16, 8.800000000000000711 ) ) ;
#166 = APPROVAL ( #20, 'UNSPECIFIED' ) ;
#167 = ADVANCED_BREP_SHAPE_REPRESENTATION ( '384657', ( #290, #296, #23 ), #221 ) ;
#168 = DIRECTION ( 'NONE',  ( -3.491481338843133355E-15, 1.239175553629613578E-16, -1.000000000000000000 ) ) ;
#169 = CLOSED_SHELL ( 'NONE', ( #144, #190, #22, #271, #232, #245, #285, #291, #49 ) ) ;
#170 = ORIENTED_EDGE ( 'NONE', *, *, #187, .T. ) ;
#171 = FACE_OUTER_BOUND ( 'NONE', #42, .T. ) ;
#172 = CYLINDRICAL_SURFACE ( 'NONE', #239, 3.950000000000000178 ) ;
#173 = LOCAL_TIME ( 11, 23, 10.00000000000000000, #15 ) ;
#174 = FACE_OUTER_BOUND ( 'NONE', #164, .T. ) ;
#175 = DIRECTION ( 'NONE',  ( 0.0000000000000000000, 1.000000000000000000, 0.0000000000000000000 ) ) ;
#176 = ADVANCED_FACE ( 'NONE', ( #25, #6 ), #254, .T. ) ;
#177 = FACE_OUTER_BOUND ( 'NONE', #275, .T. ) ;
#178 = DIRECTION ( 'NONE',  ( -3.491481338843133355E-15, 1.239175553629613578E-16, -1.000000000000000000 ) ) ;
#179 = AXIS2_PLACEMENT_3D ( 'NONE', #165, #253, #210 ) ;
#180 = EDGE_CURVE ( 'NONE', #292, #292, #265, .T. ) ;
#181 = DIRECTION ( 'NONE',  ( 0.0000000000000000000, 1.000000000000000000, 0.0000000000000000000 ) ) ;
#182 =( LENGTH_UNIT ( ) NAMED_UNIT ( * ) SI_UNIT ( .MILLI., .METRE. ) );
#183 = PERSON_AND_ORGANIZATION ( #267, #103 ) ;
#184 = ORIENTED_EDGE ( 'NONE', *, *, #295, .F. ) ;
#185 = AXIS2_PLACEMENT_3D ( 'NONE', #55, #11, #105 ) ;
#186 = ORIENTED_EDGE ( 'NONE', *, *, #97, .T. ) ;
#187 = EDGE_CURVE ( 'NONE', #156, #156, #9, .T. ) ;
#188 = APPROVAL_STATUS ( 'not_yet_approved' ) ;
#189 = UNCERTAINTY_MEASURE_WITH_UNIT (LENGTH_MEASURE( 1.000000000000000082E-05 ), #182, 'distance_accuracy_value', 'NONE');
#190 = ADVANCED_FACE ( 'NONE', ( #191, #72 ), #5, .T. ) ;
#191 = FACE_OUTER_BOUND ( 'NONE', #65, .T. ) ;
#192 = CARTESIAN_POINT ( 'NONE',  ( 2.234548056859605347E-13, -7.837739514543062104E-15, 64.00000000000000000 ) ) ;
#193 = PLANE ( 'NONE',  #250 ) ;
#194 = DIRECTION ( 'NONE',  ( 0.0000000000000000000, 1.000000000000000000, 0.0000000000000000000 ) ) ;
#195 = EDGE_CURVE ( 'NONE', #242, #242, #203, .T. ) ;
#196 = FACE_OUTER_BOUND ( 'NONE', #273, .T. ) ;
#197 = VERTEX_POINT ( 'NONE', #78 ) ;
#198 = CIRCLE ( 'NONE', #162, 3.999999999999995559 ) ;
#199 = CARTESIAN_POINT ( 'NONE',  ( 2.094888803305880013E-14, 1.999999999999999112, 6.000000000000000000 ) ) ;
#200 = FACE_BOUND ( 'NONE', #16, .T. ) ;
#201 = CARTESIAN_POINT ( 'NONE',  ( 3.072503578181957984E-14, -9.974904585075945609E-16, 8.800000000000000711 ) ) ;
#202 = VERTEX_POINT ( 'NONE', #199 ) ;
#203 = CIRCLE ( 'NONE', #43, 3.200000000000001066 ) ;
#204 = PERSON_AND_ORGANIZATION ( #267, #103 ) ;
#205 = EDGE_LOOP ( 'NONE', ( #120 ) ) ;
#206 = APPROVAL_PERSON_ORGANIZATION ( #18, #166, #274 ) ;
#207 = PERSON_AND_ORGANIZATION ( #267, #103 ) ;
#208 = ORIENTED_EDGE ( 'NONE', *, *, #195, .F. ) ;
#209 = AXIS2_PLACEMENT_3D ( 'NONE', #219, #241, #287 ) ;
#210 = DIRECTION ( 'NONE',  ( 0.0000000000000000000, -1.000000000000000000, 0.0000000000000000000 ) ) ;
#211 = EDGE_LOOP ( 'NONE', ( #208 ) ) ;
#212 = FACE_OUTER_BOUND ( 'NONE', #67, .T. ) ;
#213 = CIRCLE ( 'NONE', #114, 2.649999999999999911 ) ;
#214 = EDGE_LOOP ( 'NONE', ( #184 ) ) ;
#215 = DIRECTION ( 'NONE',  ( -3.491481338843133355E-15, 1.239175553629613578E-16, -1.000000000000000000 ) ) ;
#216 = EDGE_CURVE ( 'NONE', #131, #131, #198, .T. ) ;
#217 = CARTESIAN_POINT ( 'NONE',  ( 3.072503578181957984E-14, -9.974904585075945609E-16, 8.800000000000000711 ) ) ;
#218 = DIRECTION ( 'NONE',  ( -3.491481338843133355E-15, 1.239175553629613578E-16, -1.000000000000000000 ) ) ;
#219 = CARTESIAN_POINT ( 'NONE',  ( 2.234548056859605347E-13, -7.837739514543060526E-15, 64.00000000000000000 ) ) ;
#220 = EDGE_CURVE ( 'NONE', #7, #7, #213, .T. ) ;
#221 =( GEOMETRIC_REPRESENTATION_CONTEXT ( 3 ) GLOBAL_UNCERTAINTY_ASSIGNED_CONTEXT ( ( #189 ) ) GLOBAL_UNIT_ASSIGNED_CONTEXT ( ( #182, #69, #133 ) ) REPRESENTATION_CONTEXT ( 'NONE', 'WORKASPACE' ) );
#222 = APPROVAL_ROLE ( '' ) ;
#223 = EDGE_LOOP ( 'NONE', ( #92 ) ) ;
#224 = DATE_AND_TIME ( #135, #173 ) ;
#225 = ORIENTED_EDGE ( 'NONE', *, *, #195, .T. ) ;
#226 = SECURITY_CLASSIFICATION ( '', '', #137 ) ;
#227 = EDGE_LOOP ( 'NONE', ( #300 ) ) ;
#228 = DIRECTION ( 'NONE',  ( -4.275831445896958607E-31, -1.000000000000000000, -1.224646799147353207E-16 ) ) ;
#229 = AXIS2_PLACEMENT_3D ( 'NONE', #294, #108, #56 ) ;
#230 = CARTESIAN_POINT ( 'NONE',  ( 2.094888803305880013E-14, -7.347880794884119736E-16, 6.000000000000000000 ) ) ;
#231 = SHAPE_DEFINITION_REPRESENTATION ( #112, #167 ) ;
#232 = ADVANCED_FACE ( 'NONE', ( #130, #177 ), #31, .T. ) ;
#233 = EDGE_LOOP ( 'NONE', ( #225 ) ) ;
#234 = ORIENTED_EDGE ( 'NONE', *, *, #180, .T. ) ;
#235 = AXIS2_PLACEMENT_3D ( 'NONE', #148, #122, #45 ) ;
#236 = DIRECTION ( 'NONE',  ( 4.275831445896958607E-31, 1.000000000000000000, 1.224646799147353207E-16 ) ) ;
#237 = CARTESIAN_POINT ( 'NONE',  ( 2.137876538271899380E-31, 1.999999999999999112, 6.123121766362532060E-17 ) ) ;
#238 = DIRECTION ( 'NONE',  ( -3.491481338843133355E-15, 1.239175553629613578E-16, -1.000000000000000000 ) ) ;
#239 = AXIS2_PLACEMENT_3D ( 'NONE', #2, #168, #119 ) ;
#240 = DIRECTION ( 'NONE',  ( 7.703719777548946915E-31, 1.000000000000000000, 2.168404344971009854E-16 ) ) ;
#241 = DIRECTION ( 'NONE',  ( 3.491481338843133355E-15, -1.239175553629613578E-16, 1.000000000000000000 ) ) ;
#242 = VERTEX_POINT ( 'NONE', #37 ) ;
#243 = PERSON_AND_ORGANIZATION ( #267, #103 ) ;
#244 = CC_DESIGN_APPROVAL ( #166, ( #79 ) ) ;
#245 = ADVANCED_FACE ( 'NONE', ( #126, #152 ), #154, .T. ) ;
#246 = PERSON_AND_ORGANIZATION ( #267, #103 ) ;
#247 = EDGE_LOOP ( 'NONE', ( #71 ) ) ;
#248 = PERSON_AND_ORGANIZATION_ROLE ( 'design_supplier' ) ;
#249 = APPROVAL_STATUS ( 'not_yet_approved' ) ;
#250 = AXIS2_PLACEMENT_3D ( 'NONE', #284, #46, #228 ) ;
#251 = CALENDAR_DATE ( 2022, 11, 1 ) ;
#252 = EDGE_CURVE ( 'NONE', #197, #197, #255, .T. ) ;
#253 = DIRECTION ( 'NONE',  ( 3.491481338843133355E-15, -1.239175553629613578E-16, 1.000000000000000000 ) ) ;
#254 = CYLINDRICAL_SURFACE ( 'NONE', #145, 1.999999999999999556 ) ;
#255 = CIRCLE ( 'NONE', #185, 2.000000000000000000 ) ;
#256 = FACE_OUTER_BOUND ( 'NONE', #270, .T. ) ;
#257 = CALENDAR_DATE ( 2022, 11, 1 ) ;
#258 = DIRECTION ( 'NONE',  ( -3.491481338843133355E-15, 1.224646799147353207E-16, -1.000000000000000000 ) ) ;
#259 = CARTESIAN_POINT ( 'NONE',  ( -6.413786353522014768E-31, 2.249653418127177862E-32, -1.836981421658452222E-16 ) ) ;
#260 = APPROVAL ( #188, 'UNSPECIFIED' ) ;
#261 = AXIS2_PLACEMENT_3D ( 'NONE', #34, #10, #263 ) ;
#262 = VERTEX_POINT ( 'NONE', #151 ) ;
#263 = DIRECTION ( 'NONE',  ( 0.0000000000000000000, 1.000000000000000000, 0.0000000000000000000 ) ) ;
#264 = PLANE ( 'NONE',  #229 ) ;
#265 = CIRCLE ( 'NONE', #109, 1.999999999999999112 ) ;
#266 = FACE_OUTER_BOUND ( 'NONE', #63, .T. ) ;
#267 = PERSON ( 'UNSPECIFIED', 'UNSPECIFIED', 'UNSPECIFIED', ('UNSPECIFIED'), ('UNSPECIFIED'), ('UNSPECIFIED') ) ;
#268 = CARTESIAN_POINT ( 'NONE',  ( 6.598899730413522673E-14, 3.949999999999998845, 18.89999999999999858 ) ) ;
#269 = APPLICATION_PROTOCOL_DEFINITION ( 'international standard', 'config_control_design', 1994, #54 ) ;
#270 = EDGE_LOOP ( 'NONE', ( #157 ) ) ;
#271 = ADVANCED_FACE ( 'NONE', ( #266, #200 ), #155, .T. ) ;
#272 = APPROVAL_DATE_TIME ( #140, #277 ) ;
#273 = EDGE_LOOP ( 'NONE', ( #280 ) ) ;
#274 = APPROVAL_ROLE ( '' ) ;
#275 = EDGE_LOOP ( 'NONE', ( #19 ) ) ;
#276 = APPROVAL_ROLE ( '' ) ;
#277 = APPROVAL ( #249, 'UNSPECIFIED' ) ;
#278 = DATE_TIME_ROLE ( 'creation_date' ) ;
#279 = AXIS2_PLACEMENT_3D ( 'NONE', #124, #215, #94 ) ;
#280 = ORIENTED_EDGE ( 'NONE', *, *, #220, .T. ) ;
#281 = PLANE ( 'NONE',  #235 ) ;
#282 = DIRECTION ( 'NONE',  ( -3.491481338843133355E-15, 1.239175553629613578E-16, -1.000000000000000000 ) ) ;
#283 = EDGE_CURVE ( 'NONE', #262, #262, #13, .T. ) ;
#284 = CARTESIAN_POINT ( 'NONE',  ( -3.206893176761007384E-31, 1.124826709063588931E-32, -9.184907108292261111E-17 ) ) ;
#285 = ADVANCED_FACE ( 'NONE', ( #85 ), #81, .T. ) ;
#286 = DIRECTION ( 'NONE',  ( -3.491481338843133355E-15, 1.224646799147353207E-16, -1.000000000000000000 ) ) ;
#287 = DIRECTION ( 'NONE',  ( -4.326558321048404892E-31, -1.000000000000000000, -1.239175553629613578E-16 ) ) ;
#288 = CARTESIAN_POINT ( 'NONE',  ( 2.206616206148860281E-13, 3.999999999999993339, 63.20000000000000284 ) ) ;
#289 = CARTESIAN_POINT ( 'NONE',  ( 2.094888803305880013E-14, -6.505213034913026604E-16, 6.000000000000000000 ) ) ;
#290 = MANIFOLD_SOLID_BREP ( 'Corps-Déplacer/Copier3[1]', #169 ) ;
#291 = ADVANCED_FACE ( 'NONE', ( #174 ), #264, .T. ) ;
#292 = VERTEX_POINT ( 'NONE', #237 ) ;
#293 = CC_DESIGN_SECURITY_CLASSIFICATION ( #226, ( #79 ) ) ;
#294 = CARTESIAN_POINT ( 'NONE',  ( 2.094888803305880013E-14, 1.999999999999999112, 6.000000000000000000 ) ) ;
#295 = EDGE_CURVE ( 'NONE', #102, #102, #33, .T. ) ;
#296 = MANIFOLD_SOLID_BREP ( 'Corps-Déplacer/Copier3[2]', #83 ) ;
#297 = ORIENTED_EDGE ( 'NONE', *, *, #220, .F. ) ;
#298 = CALENDAR_DATE ( 2022, 11, 1 ) ;
#299 = CIRCLE ( 'NONE', #139, 3.950000000000001066 ) ;
#300 = ORIENTED_EDGE ( 'NONE', *, *, #295, .T. ) ;
#301 = APPLICATION_PROTOCOL_DEFINITION ( 'international standard', 'config_control_design', 1994, #73 ) ;
#302 = ORIENTED_EDGE ( 'NONE', *, *, #283, .T. ) ;
#303 = CC_DESIGN_PERSON_AND_ORGANIZATION_ASSIGNMENT ( #207, #248, ( #79 ) ) ;
ENDSEC;
END-ISO-10303-21;
