ISO-10303-21;
HEADER;
FILE_DESCRIPTION (( 'STEP AP203' ),
    '1' );
FILE_NAME ('384656.step',
    '2022-01-11T10:23:09',
    ( '' ),
    ( '' ),
    'SwSTEP 2.0',
    'SolidWorks 2019',
    '' );
FILE_SCHEMA (( 'CONFIG_CONTROL_DESIGN' ));
ENDSEC;

DATA;
#1 = DIRECTION ( 'NONE',  ( 4.275831445896958607E-31, 1.000000000000000000, 1.224646799147353207E-16 ) ) ;
#2 = ADVANCED_FACE ( 'NONE', ( #15 ), #232, .F. ) ;
#3 = COORDINATED_UNIVERSAL_TIME_OFFSET ( 1, 0, .AHEAD. ) ;
#4 = EDGE_LOOP ( 'NONE', ( #263 ) ) ;
#5 = DATE_TIME_ROLE ( 'creation_date' ) ;
#6 = PERSON_AND_ORGANIZATION_ROLE ( 'creator' ) ;
#7 = ORIENTED_EDGE ( 'NONE', *, *, #294, .T. ) ;
#8 = ORIENTED_EDGE ( 'NONE', *, *, #239, .F. ) ;
#9 = CARTESIAN_POINT ( 'NONE',  ( 1.571166602479410010E-14, 1.124819836996392248E-32, 4.500000000000000000 ) ) ;
#10 = ADVANCED_FACE ( 'NONE', ( #14, #123 ), #139, .T. ) ;
#11 = CC_DESIGN_PERSON_AND_ORGANIZATION_ASSIGNMENT ( #242, #6, ( #106 ) ) ;
#12 = DIRECTION ( 'NONE',  ( -3.491481338843133355E-15, 1.224646799147353207E-16, -1.000000000000000000 ) ) ;
#13 = PERSON_AND_ORGANIZATION_ROLE ( 'creator' ) ;
#14 = FACE_BOUND ( 'NONE', #164, .T. ) ;
#15 = FACE_OUTER_BOUND ( 'NONE', #225, .T. ) ;
#16 = AXIS2_PLACEMENT_3D ( 'NONE', #313, #20, #76 ) ;
#17 = CARTESIAN_POINT ( 'NONE',  ( 2.094888803305880013E-14, -7.347880794884119736E-16, 6.000000000000000000 ) ) ;
#18 = FACE_OUTER_BOUND ( 'NONE', #194, .T. ) ;
#19 = DIRECTION ( 'NONE',  ( 0.0000000000000000000, -1.000000000000000000, 0.0000000000000000000 ) ) ;
#20 = DIRECTION ( 'NONE',  ( -3.491481338843133355E-15, 1.224646799147353207E-16, -1.000000000000000000 ) ) ;
#21 = DIRECTION ( 'NONE',  ( -4.275831445896958607E-31, -1.000000000000000000, -1.224646799147353207E-16 ) ) ;
#22 = FACE_BOUND ( 'NONE', #87, .T. ) ;
#23 = AXIS2_PLACEMENT_3D ( 'NONE', #290, #312, #261 ) ;
#24 = DIRECTION ( 'NONE',  ( 0.0000000000000000000, 0.0000000000000000000, 1.000000000000000000 ) ) ;
#25 = EDGE_LOOP ( 'NONE', ( #8 ) ) ;
#26 = CARTESIAN_POINT ( 'NONE',  ( 1.069053792562852354E-31, 1.499999999999999334, 3.061891755426287241E-17 ) ) ;
#27 = ORIENTED_EDGE ( 'NONE', *, *, #141, .F. ) ;
#28 = CARTESIAN_POINT ( 'NONE',  ( 2.240072761029376340E-14, 1.543704798532382405, 6.415823381635491707 ) ) ;
#29 = ADVANCED_FACE ( 'NONE', ( #94 ), #126, .F. ) ;
#30 = CC_DESIGN_APPROVAL ( #223, ( #335 ) ) ;
#31 = ORIENTED_EDGE ( 'NONE', *, *, #187, .T. ) ;
#32 = CC_DESIGN_DATE_AND_TIME_ASSIGNMENT ( #58, #5, ( #106 ) ) ;
#33 = VERTEX_POINT ( 'NONE', #26 ) ;
#34 = EDGE_LOOP ( 'NONE', ( #56 ) ) ;
#35 = ADVANCED_BREP_SHAPE_REPRESENTATION ( '384656', ( #104, #113, #288 ), #327 ) ;
#36 = APPROVAL_STATUS ( 'not_yet_approved' ) ;
#37 = DIRECTION ( 'NONE',  ( -3.491481338843133355E-15, 1.224646799147353207E-16, -1.000000000000000000 ) ) ;
#38 = DIRECTION ( 'NONE',  ( 3.491481338843133355E-15, -1.224646799147353207E-16, 1.000000000000000000 ) ) ;
#39 = AXIS2_PLACEMENT_3D ( 'NONE', #252, #91, #67 ) ;
#40 = CARTESIAN_POINT ( 'NONE',  ( 2.304377683636468014E-14, 2.686709228779010992E-32, 6.599999999999999645 ) ) ;
#41 = DIRECTION ( 'NONE',  ( -3.491481338843133355E-15, 1.224646799147353207E-16, -1.000000000000000000 ) ) ;
#42 = PERSON_AND_ORGANIZATION ( #330, #189 ) ;
#43 = DIRECTION ( 'NONE',  ( -3.491481338843133355E-15, 1.224646799147353207E-16, -1.000000000000000000 ) ) ;
#44 = AXIS2_PLACEMENT_3D ( 'NONE', #9, #206, #304 ) ;
#45 = AXIS2_PLACEMENT_3D ( 'NONE', #214, #50, #209 ) ;
#46 = CARTESIAN_POINT ( 'NONE',  ( 4.818244247603524030E-14, -1.690012582823347529E-15, 13.80000000000000071 ) ) ;
#47 = PLANE ( 'NONE',  #334 ) ;
#48 = DIRECTION ( 'NONE',  ( -3.491481338843133355E-15, 1.224646799147353207E-16, -1.000000000000000000 ) ) ;
#49 = AXIS2_PLACEMENT_3D ( 'NONE', #157, #136, #19 ) ;
#50 = DIRECTION ( 'NONE',  ( -3.491481338843133355E-15, 1.224646799147353207E-16, -1.000000000000000000 ) ) ;
#51 = DIRECTION ( 'NONE',  ( 0.0000000000000000000, 1.000000000000000000, 0.0000000000000000000 ) ) ;
#52 =( NAMED_UNIT ( * ) PLANE_ANGLE_UNIT ( ) SI_UNIT ( $, .RADIAN. ) );
#53 = ORIENTED_EDGE ( 'NONE', *, *, #176, .T. ) ;
#54 = EDGE_LOOP ( 'NONE', ( #59 ) ) ;
#55 = APPLICATION_PROTOCOL_DEFINITION ( 'international standard', 'config_control_design', 1994, #204 ) ;
#56 = ORIENTED_EDGE ( 'NONE', *, *, #141, .T. ) ;
#57 = ADVANCED_FACE ( 'NONE', ( #175, #250 ), #69, .F. ) ;
#58 = DATE_AND_TIME ( #248, #145 ) ;
#59 = ORIENTED_EDGE ( 'NONE', *, *, #132, .F. ) ;
#60 = VERTEX_POINT ( 'NONE', #220 ) ;
#61 = CC_DESIGN_SECURITY_CLASSIFICATION ( #335, ( #72 ) ) ;
#62 = EDGE_LOOP ( 'NONE', ( #297 ) ) ;
#63 = PERSON_AND_ORGANIZATION ( #330, #189 ) ;
#64 = EDGE_CURVE ( 'NONE', #70, #70, #71, .T. ) ;
#65 = DIRECTION ( 'NONE',  ( -3.491481338843133355E-15, 1.224646799147353207E-16, -1.000000000000000000 ) ) ;
#66 = FACE_BOUND ( 'NONE', #115, .T. ) ;
#67 = DIRECTION ( 'NONE',  ( 0.0000000000000000000, 1.000000000000000000, 0.0000000000000000000 ) ) ;
#68 = DIRECTION ( 'NONE',  ( -3.491481338843133355E-15, 1.224646799147353207E-16, -1.000000000000000000 ) ) ;
#69 = PLANE ( 'NONE',  #183 ) ;
#70 = VERTEX_POINT ( 'NONE', #238 ) ;
#71 = CIRCLE ( 'NONE', #120, 2.000000000000000444 ) ;
#72 = PRODUCT_DEFINITION_FORMATION_WITH_SPECIFIED_SOURCE ( 'ANY', '', #109, .NOT_KNOWN. ) ;
#73 = FACE_OUTER_BOUND ( 'NONE', #322, .T. ) ;
#74 = EDGE_CURVE ( 'NONE', #283, #283, #310, .T. ) ;
#75 = CYLINDRICAL_SURFACE ( 'NONE', #177, 1.499999999999999556 ) ;
#76 = DIRECTION ( 'NONE',  ( 4.275831445896958607E-31, 1.000000000000000000, 1.224646799147353454E-16 ) ) ;
#77 = LOCAL_TIME ( 11, 23, 9.000000000000000000, #84 ) ;
#78 = CARTESIAN_POINT ( 'NONE',  ( -2.672346688141291245E-31, 9.373330401154692389E-33, -7.653905115892002352E-17 ) ) ;
#79 = PERSON_AND_ORGANIZATION_ROLE ( 'design_owner' ) ;
#80 = ORIENTED_EDGE ( 'NONE', *, *, #342, .T. ) ;
#81 = AXIS2_PLACEMENT_3D ( 'NONE', #314, #235, #212 ) ;
#82 = VERTEX_POINT ( 'NONE', #292 ) ;
#83 = ORIENTED_EDGE ( 'NONE', *, *, #275, .T. ) ;
#84 = COORDINATED_UNIVERSAL_TIME_OFFSET ( 1, 0, .AHEAD. ) ;
#85 = ORIENTED_EDGE ( 'NONE', *, *, #97, .T. ) ;
#86 = DIRECTION ( 'NONE',  ( 1.000000000000000000, 0.0000000000000000000, 0.0000000000000000000 ) ) ;
#87 = EDGE_LOOP ( 'NONE', ( #201 ) ) ;
#88 = APPROVAL_DATE_TIME ( #296, #324 ) ;
#89 = CIRCLE ( 'NONE', #293, 1.499999999999999334 ) ;
#90 = PERSON_AND_ORGANIZATION_ROLE ( 'design_supplier' ) ;
#91 = DIRECTION ( 'NONE',  ( -3.491481338843133355E-15, 1.224646799147353207E-16, -1.000000000000000000 ) ) ;
#92 = CC_DESIGN_PERSON_AND_ORGANIZATION_ASSIGNMENT ( #42, #13, ( #72 ) ) ;
#93 = CALENDAR_DATE ( 2022, 11, 1 ) ;
#94 = FACE_OUTER_BOUND ( 'NONE', #62, .T. ) ;
#95 = DIRECTION ( 'NONE',  ( 0.0000000000000000000, -1.000000000000000000, 0.0000000000000000000 ) ) ;
#96 = CC_DESIGN_APPROVAL ( #127, ( #106 ) ) ;
#97 = EDGE_CURVE ( 'NONE', #108, #108, #166, .T. ) ;
#98 = COORDINATED_UNIVERSAL_TIME_OFFSET ( 1, 0, .AHEAD. ) ;
#99 = CYLINDRICAL_SURFACE ( 'NONE', #234, 1.500000000000000000 ) ;
#100 = DIRECTION ( 'NONE',  ( 4.372396152817902039E-31, 1.000000000000000000, 1.224646799147353207E-16 ) ) ;
#101 = ADVANCED_FACE ( 'NONE', ( #203, #337 ), #99, .T. ) ;
#102 = DIRECTION ( 'NONE',  ( -3.491481338843133355E-15, 1.224646799147353207E-16, -1.000000000000000000 ) ) ;
#103 = LOCAL_TIME ( 11, 23, 9.000000000000000000, #329 ) ;
#104 = MANIFOLD_SOLID_BREP ( 'Corps-Déplacer/Copier1[1]', #153 ) ;
#105 = FACE_OUTER_BOUND ( 'NONE', #118, .T. ) ;
#106 = PRODUCT_DEFINITION ( 'UNKNOWN', '', #72, #213 ) ;
#107 = CARTESIAN_POINT ( 'NONE',  ( 0.0000000000000000000, 0.0000000000000000000, 0.0000000000000000000 ) ) ;
#108 = VERTEX_POINT ( 'NONE', #233 ) ;
#109 = PRODUCT ( '384656', '384656', '', ( #169 ) ) ;
#110 = CIRCLE ( 'NONE', #251, 1.500000000000000000 ) ;
#111 = CC_DESIGN_PERSON_AND_ORGANIZATION_ASSIGNMENT ( #202, #180, ( #335 ) ) ;
#112 = CARTESIAN_POINT ( 'NONE',  ( 4.818244247603524030E-14, 2.949999999999998845, 13.80000000000000071 ) ) ;
#113 = MANIFOLD_SOLID_BREP ( 'Corps-Déplacer/Copier1[2]', #300 ) ;
#114 = CARTESIAN_POINT ( 'NONE',  ( 2.304377683636468014E-14, 1.582852747271951799, 6.599999999999999645 ) ) ;
#115 = EDGE_LOOP ( 'NONE', ( #85 ) ) ;
#116 = AXIS2_PLACEMENT_3D ( 'NONE', #302, #65, #174 ) ;
#117 = PERSON_AND_ORGANIZATION ( #330, #189 ) ;
#118 = EDGE_LOOP ( 'NONE', ( #27 ) ) ;
#119 = EDGE_LOOP ( 'NONE', ( #142 ) ) ;
#120 = AXIS2_PLACEMENT_3D ( 'NONE', #130, #231, #253 ) ;
#121 = APPROVAL_ROLE ( '' ) ;
#122 = APPROVAL_PERSON_ORGANIZATION ( #117, #324, #321 ) ;
#123 = FACE_OUTER_BOUND ( 'NONE', #308, .T. ) ;
#124 = DIRECTION ( 'NONE',  ( 3.491481338843133355E-15, -1.224646799147353207E-16, 1.000000000000000000 ) ) ;
#125 = PERSON_AND_ORGANIZATION ( #330, #189 ) ;
#126 = PLANE ( 'NONE',  #281 ) ;
#127 = APPROVAL ( #266, 'UNSPECIFIED' ) ;
#128 = SECURITY_CLASSIFICATION_LEVEL ( 'unclassified' ) ;
#129 = AXIS2_PLACEMENT_3D ( 'NONE', #343, #102, #51 ) ;
#130 = CARTESIAN_POINT ( 'NONE',  ( 2.304377683636468330E-14, -8.082668874372532006E-16, 6.600000000000000533 ) ) ;
#131 = EDGE_LOOP ( 'NONE', ( #301 ) ) ;
#132 = EDGE_CURVE ( 'NONE', #215, #215, #110, .T. ) ;
#133 = CARTESIAN_POINT ( 'NONE',  ( 1.899365848330664293E-13, 2.999999999999995559, 54.39999999999999858 ) ) ;
#134 = CARTESIAN_POINT ( 'NONE',  ( 1.571166602479410010E-14, -5.510910596163088569E-16, 4.500000000000000000 ) ) ;
#135 = AXIS2_PLACEMENT_3D ( 'NONE', #78, #161, #21 ) ;
#136 = DIRECTION ( 'NONE',  ( 3.491481338843133355E-15, -1.224646799147353207E-16, 1.000000000000000000 ) ) ;
#137 = FACE_BOUND ( 'NONE', #119, .T. ) ;
#138 = DIRECTION ( 'NONE',  ( -3.491481338843133355E-15, 1.224646799147353207E-16, -1.000000000000000000 ) ) ;
#139 = CONICAL_SURFACE ( 'NONE', #325, 1.582852747271952687, 0.2094395102393070418 ) ;
#140 = CIRCLE ( 'NONE', #192, 2.950000000000000178 ) ;
#141 = EDGE_CURVE ( 'NONE', #33, #33, #89, .T. ) ;
#142 = ORIENTED_EDGE ( 'NONE', *, *, #298, .F. ) ;
#143 = VERTEX_POINT ( 'NONE', #112 ) ;
#144 = LOCAL_TIME ( 11, 23, 9.000000000000000000, #98 ) ;
#145 = LOCAL_TIME ( 11, 23, 9.000000000000000000, #3 ) ;
#146 = APPLICATION_PROTOCOL_DEFINITION ( 'international standard', 'config_control_design', 1994, #196 ) ;
#147 = VERTEX_POINT ( 'NONE', #299 ) ;
#148 = CIRCLE ( 'NONE', #129, 1.582852747271952687 ) ;
#149 = CARTESIAN_POINT ( 'NONE',  ( 0.0000000000000000000, 0.0000000000000000000, 0.0000000000000000000 ) ) ;
#150 = DIRECTION ( 'NONE',  ( 4.275831445896959482E-31, 1.000000000000000000, 1.224646799147353207E-16 ) ) ;
#151 = DIRECTION ( 'NONE',  ( -3.491481338843133355E-15, 1.224646799147353207E-16, -1.000000000000000000 ) ) ;
#152 = DATE_AND_TIME ( #173, #144 ) ;
#153 = CLOSED_SHELL ( 'NONE', ( #2, #101, #160, #10, #57, #249, #318, #222, #245, #165, #29 ) ) ;
#154 = CIRCLE ( 'NONE', #258, 2.949999999999999734 ) ;
#155 = CARTESIAN_POINT ( 'NONE',  ( 2.304377683636468014E-14, -8.082668874372531019E-16, 6.599999999999999645 ) ) ;
#156 = PLANE ( 'NONE',  #135 ) ;
#157 = CARTESIAN_POINT ( 'NONE',  ( 3.864859865809860024E-14, -1.355610356888052086E-15, 11.06939860400468767 ) ) ;
#158 = DIRECTION ( 'NONE',  ( 4.275831445896958607E-31, 1.000000000000000000, 1.224646799147353207E-16 ) ) ;
#159 = AXIS2_PLACEMENT_3D ( 'NONE', #134, #138, #340 ) ;
#160 = ADVANCED_FACE ( 'NONE', ( #255, #228 ), #274, .F. ) ;
#161 = DIRECTION ( 'NONE',  ( 3.491481338843133355E-15, -1.224646799147353207E-16, 1.000000000000000000 ) ) ;
#162 = PLANE ( 'NONE',  #23 ) ;
#163 = VERTEX_POINT ( 'NONE', #193 ) ;
#164 = EDGE_LOOP ( 'NONE', ( #267 ) ) ;
#165 = ADVANCED_FACE ( 'NONE', ( #336, #66 ), #205, .T. ) ;
#166 = CIRCLE ( 'NONE', #39, 2.400000000000003020 ) ;
#167 = DATE_AND_TIME ( #270, #227 ) ;
#168 = ORIENTED_EDGE ( 'NONE', *, *, #74, .T. ) ;
#169 = MECHANICAL_CONTEXT ( 'NONE', #204, 'mechanical' ) ;
#170 =( LENGTH_UNIT ( ) NAMED_UNIT ( * ) SI_UNIT ( .MILLI., .METRE. ) );
#171 = ORIENTED_EDGE ( 'NONE', *, *, #239, .T. ) ;
#172 = AXIS2_PLACEMENT_3D ( 'NONE', #207, #12, #100 ) ;
#173 = CALENDAR_DATE ( 2022, 11, 1 ) ;
#174 = DIRECTION ( 'NONE',  ( 0.0000000000000000000, 1.000000000000000000, 0.0000000000000000000 ) ) ;
#175 = FACE_BOUND ( 'NONE', #25, .T. ) ;
#176 = EDGE_CURVE ( 'NONE', #163, #163, #269, .T. ) ;
#177 = AXIS2_PLACEMENT_3D ( 'NONE', #289, #48, #158 ) ;
#178 = FACE_OUTER_BOUND ( 'NONE', #4, .T. ) ;
#179 = CARTESIAN_POINT ( 'NONE',  ( 1.920314736363723472E-13, 1.799711739194220919E-32, 55.00000000000000000 ) ) ;
#180 = PERSON_AND_ORGANIZATION_ROLE ( 'classification_officer' ) ;
#181 = ADVANCED_FACE ( 'NONE', ( #178 ), #162, .T. ) ;
#182 = ORIENTED_EDGE ( 'NONE', *, *, #132, .T. ) ;
#183 = AXIS2_PLACEMENT_3D ( 'NONE', #40, #38, #278 ) ;
#184 = DIRECTION ( 'NONE',  ( -3.491481338843133355E-15, 1.224646799147353207E-16, -1.000000000000000000 ) ) ;
#185 = FACE_OUTER_BOUND ( 'NONE', #219, .T. ) ;
#186 = FACE_OUTER_BOUND ( 'NONE', #273, .T. ) ;
#187 = EDGE_CURVE ( 'NONE', #147, #147, #282, .T. ) ;
#188 = FACE_OUTER_BOUND ( 'NONE', #254, .T. ) ;
#189 = ORGANIZATION ( 'UNSPECIFIED', 'UNSPECIFIED', '' ) ;
#190 = DIRECTION ( 'NONE',  ( 3.491481338843133355E-15, -1.224646799147353207E-16, 1.000000000000000000 ) ) ;
#191 = ADVANCED_FACE ( 'NONE', ( #316 ), #156, .F. ) ;
#192 = AXIS2_PLACEMENT_3D ( 'NONE', #46, #184, #259 ) ;
#193 = CARTESIAN_POINT ( 'NONE',  ( 1.571166602479410010E-14, 1.499999999999999334, 4.500000000000000000 ) ) ;
#194 = EDGE_LOOP ( 'NONE', ( #226 ) ) ;
#195 = CALENDAR_DATE ( 2022, 11, 1 ) ;
#196 = APPLICATION_CONTEXT ( 'configuration controlled 3d designs of mechanical parts and assemblies' ) ;
#197 = CC_DESIGN_DATE_AND_TIME_ASSIGNMENT ( #152, #306, ( #335 ) ) ;
#198 = PERSON_AND_ORGANIZATION ( #330, #189 ) ;
#199 = ORIENTED_EDGE ( 'NONE', *, *, #187, .F. ) ;
#200 = CIRCLE ( 'NONE', #159, 1.500000000000000000 ) ;
#201 = ORIENTED_EDGE ( 'NONE', *, *, #64, .F. ) ;
#202 = PERSON_AND_ORGANIZATION ( #330, #189 ) ;
#203 = FACE_OUTER_BOUND ( 'NONE', #243, .T. ) ;
#204 = APPLICATION_CONTEXT ( 'configuration controlled 3d designs of mechanical parts and assemblies' ) ;
#205 = CONICAL_SURFACE ( 'NONE', #116, 2.400000000000003020, 0.7853981633974450594 ) ;
#206 = DIRECTION ( 'NONE',  ( 3.491481338843133355E-15, -1.224646799147353207E-16, 1.000000000000000000 ) ) ;
#207 = CARTESIAN_POINT ( 'NONE',  ( 2.094888803305880013E-14, -8.673617379884035472E-16, 6.000000000000000000 ) ) ;
#208 = CC_DESIGN_PERSON_AND_ORGANIZATION_ASSIGNMENT ( #198, #79, ( #109 ) ) ;
#209 = DIRECTION ( 'NONE',  ( 0.0000000000000000000, 1.000000000000000000, 0.0000000000000000000 ) ) ;
#210 = APPROVAL_PERSON_ORGANIZATION ( #125, #223, #121 ) ;
#211 = CARTESIAN_POINT ( 'NONE',  ( 2.094888803305880013E-14, 1.499999999999999334, 6.000000000000000000 ) ) ;
#212 = DIRECTION ( 'NONE',  ( 0.0000000000000000000, 1.000000000000000000, 0.0000000000000000000 ) ) ;
#213 = DESIGN_CONTEXT ( 'detailed design', #196, 'design' ) ;
#214 = CARTESIAN_POINT ( 'NONE',  ( 2.240072761029376340E-14, -7.857117568214652176E-16, 6.415823381635491707 ) ) ;
#215 = VERTEX_POINT ( 'NONE', #211 ) ;
#216 = APPROVAL_PERSON_ORGANIZATION ( #295, #127, #224 ) ;
#217 =( NAMED_UNIT ( * ) SI_UNIT ( $, .STERADIAN. ) SOLID_ANGLE_UNIT ( ) );
#218 = VERTEX_POINT ( 'NONE', #28 ) ;
#219 = EDGE_LOOP ( 'NONE', ( #7 ) ) ;
#220 = CARTESIAN_POINT ( 'NONE',  ( 1.571166602479410010E-14, 1.499999999999999334, 4.500000000000000000 ) ) ;
#221 = APPROVAL_STATUS ( 'not_yet_approved' ) ;
#222 = ADVANCED_FACE ( 'NONE', ( #137, #73 ), #47, .F. ) ;
#223 = APPROVAL ( #36, 'UNSPECIFIED' ) ;
#224 = APPROVAL_ROLE ( '' ) ;
#225 = EDGE_LOOP ( 'NONE', ( #83 ) ) ;
#226 = ORIENTED_EDGE ( 'NONE', *, *, #294, .F. ) ;
#227 = LOCAL_TIME ( 11, 23, 9.000000000000000000, #244 ) ;
#228 = FACE_OUTER_BOUND ( 'NONE', #54, .T. ) ;
#229 = CARTESIAN_POINT ( 'NONE',  ( -5.344693376282582491E-31, 1.874666080230938478E-32, -1.530781023178400470E-16 ) ) ;
#230 = DIRECTION ( 'NONE',  ( 0.0000000000000000000, 1.000000000000000000, 0.0000000000000000000 ) ) ;
#231 = DIRECTION ( 'NONE',  ( -3.491481338843133355E-15, 1.224646799147353207E-16, -1.000000000000000000 ) ) ;
#232 = PLANE ( 'NONE',  #44 ) ;
#233 = CARTESIAN_POINT ( 'NONE',  ( 1.920314736363723472E-13, 2.399999999999995914, 55.00000000000000000 ) ) ;
#234 = AXIS2_PLACEMENT_3D ( 'NONE', #149, #68, #150 ) ;
#235 = DIRECTION ( 'NONE',  ( -3.491481338843133355E-15, 1.224646799147353207E-16, -1.000000000000000000 ) ) ;
#236 = DIRECTION ( 'NONE',  ( 0.0000000000000000000, 1.000000000000000000, 0.0000000000000000000 ) ) ;
#237 = UNCERTAINTY_MEASURE_WITH_UNIT (LENGTH_MEASURE( 1.000000000000000082E-05 ), #170, 'distance_accuracy_value', 'NONE');
#238 = CARTESIAN_POINT ( 'NONE',  ( 2.304377683636468330E-14, 1.999999999999999556, 6.600000000000000533 ) ) ;
#239 = EDGE_CURVE ( 'NONE', #317, #317, #148, .T. ) ;
#240 = DIRECTION ( 'NONE',  ( -3.491481338843133355E-15, 1.224646799147353207E-16, -1.000000000000000000 ) ) ;
#241 = EDGE_LOOP ( 'NONE', ( #246 ) ) ;
#242 = PERSON_AND_ORGANIZATION ( #330, #189 ) ;
#243 = EDGE_LOOP ( 'NONE', ( #323 ) ) ;
#244 = COORDINATED_UNIVERSAL_TIME_OFFSET ( 1, 0, .AHEAD. ) ;
#245 = ADVANCED_FACE ( 'NONE', ( #287, #188 ), #256, .T. ) ;
#246 = ORIENTED_EDGE ( 'NONE', *, *, #298, .T. ) ;
#247 = CIRCLE ( 'NONE', #45, 1.543704798532383293 ) ;
#248 = CALENDAR_DATE ( 2022, 11, 1 ) ;
#249 = ADVANCED_FACE ( 'NONE', ( #22, #185 ), #339, .T. ) ;
#250 = FACE_OUTER_BOUND ( 'NONE', #265, .T. ) ;
#251 = AXIS2_PLACEMENT_3D ( 'NONE', #17, #43, #307 ) ;
#252 = CARTESIAN_POINT ( 'NONE',  ( 1.920314736363723472E-13, -6.735557395310442615E-15, 55.00000000000000000 ) ) ;
#253 = DIRECTION ( 'NONE',  ( 0.0000000000000000000, 1.000000000000000000, 0.0000000000000000000 ) ) ;
#254 = EDGE_LOOP ( 'NONE', ( #168 ) ) ;
#255 = FACE_OUTER_BOUND ( 'NONE', #326, .T. ) ;
#256 = CYLINDRICAL_SURFACE ( 'NONE', #16, 2.999999999999998668 ) ;
#257 = CARTESIAN_POINT ( 'NONE',  ( 4.818244247603524030E-14, 4.461785353419020636E-32, 13.80000000000000071 ) ) ;
#258 = AXIS2_PLACEMENT_3D ( 'NONE', #338, #260, #236 ) ;
#259 = DIRECTION ( 'NONE',  ( 0.0000000000000000000, 1.000000000000000000, 0.0000000000000000000 ) ) ;
#260 = DIRECTION ( 'NONE',  ( -3.491481338843133355E-15, 1.224646799147353207E-16, -1.000000000000000000 ) ) ;
#261 = DIRECTION ( 'NONE',  ( -4.275831445896958607E-31, -1.000000000000000000, -1.224646799147353207E-16 ) ) ;
#262 = AXIS2_PLACEMENT_3D ( 'NONE', #107, #240, #1 ) ;
#263 = ORIENTED_EDGE ( 'NONE', *, *, #176, .F. ) ;
#264 = APPROVAL_DATE_TIME ( #167, #127 ) ;
#265 = EDGE_LOOP ( 'NONE', ( #320 ) ) ;
#266 = APPROVAL_STATUS ( 'not_yet_approved' ) ;
#267 = ORIENTED_EDGE ( 'NONE', *, *, #342, .F. ) ;
#268 = EDGE_LOOP ( 'NONE', ( #182 ) ) ;
#269 = CIRCLE ( 'NONE', #305, 1.500000000000000000 ) ;
#270 = CALENDAR_DATE ( 2022, 11, 1 ) ;
#271 = EDGE_LOOP ( 'NONE', ( #199 ) ) ;
#272 = CARTESIAN_POINT ( 'NONE',  ( 1.571166602479410010E-14, -5.510910596163088569E-16, 4.500000000000000000 ) ) ;
#273 = EDGE_LOOP ( 'NONE', ( #53 ) ) ;
#274 = TOROIDAL_SURFACE ( 'NONE', #172, 3.500000000000000444, 2.000000000000000000 ) ;
#275 = EDGE_CURVE ( 'NONE', #60, #60, #200, .T. ) ;
#276 = SHAPE_DEFINITION_REPRESENTATION ( #319, #35 ) ;
#277 = CC_DESIGN_PERSON_AND_ORGANIZATION_ASSIGNMENT ( #63, #90, ( #72 ) ) ;
#278 = DIRECTION ( 'NONE',  ( -4.275831445896958607E-31, -1.000000000000000000, -1.224646799147353207E-16 ) ) ;
#279 = DATE_AND_TIME ( #93, #103 ) ;
#280 = CARTESIAN_POINT ( 'NONE',  ( 1.899365848330664293E-13, -6.662078587361600895E-15, 54.39999999999999858 ) ) ;
#281 = AXIS2_PLACEMENT_3D ( 'NONE', #179, #151, #328 ) ;
#282 = CIRCLE ( 'NONE', #81, 2.999999999999995115 ) ;
#283 = VERTEX_POINT ( 'NONE', #133 ) ;
#284 = ADVANCED_FACE ( 'NONE', ( #105, #186 ), #75, .T. ) ;
#285 = DIRECTION ( 'NONE',  ( -4.275831445896958607E-31, -1.000000000000000000, -1.224646799147353207E-16 ) ) ;
#286 = PRODUCT_RELATED_PRODUCT_CATEGORY ( 'detail', '', ( #109 ) ) ;
#287 = FACE_OUTER_BOUND ( 'NONE', #271, .T. ) ;
#288 = AXIS2_PLACEMENT_3D ( 'NONE', #291, #24, #86 ) ;
#289 = CARTESIAN_POINT ( 'NONE',  ( 0.0000000000000000000, 0.0000000000000000000, 0.0000000000000000000 ) ) ;
#290 = CARTESIAN_POINT ( 'NONE',  ( 1.571166602479410010E-14, 1.124819836996392248E-32, 4.500000000000000000 ) ) ;
#291 = CARTESIAN_POINT ( 'NONE',  ( 0.0000000000000000000, 0.0000000000000000000, 0.0000000000000000000 ) ) ;
#292 = CARTESIAN_POINT ( 'NONE',  ( 3.864859865809860024E-14, 2.949999999999998845, 11.06939860400468767 ) ) ;
#293 = AXIS2_PLACEMENT_3D ( 'NONE', #229, #41, #331 ) ;
#294 = EDGE_CURVE ( 'NONE', #82, #82, #154, .T. ) ;
#295 = PERSON_AND_ORGANIZATION ( #330, #189 ) ;
#296 = DATE_AND_TIME ( #195, #77 ) ;
#297 = ORIENTED_EDGE ( 'NONE', *, *, #97, .F. ) ;
#298 = EDGE_CURVE ( 'NONE', #143, #143, #140, .T. ) ;
#299 = CARTESIAN_POINT ( 'NONE',  ( 4.818244247603524030E-14, 2.999999999999993339, 13.80000000000000071 ) ) ;
#300 = CLOSED_SHELL ( 'NONE', ( #191, #284, #181 ) ) ;
#301 = ORIENTED_EDGE ( 'NONE', *, *, #74, .F. ) ;
#302 = CARTESIAN_POINT ( 'NONE',  ( 1.920314736363723472E-13, -6.735557395310442615E-15, 55.00000000000000000 ) ) ;
#303 = DIRECTION ( 'NONE',  ( 0.0000000000000000000, 1.000000000000000000, 0.0000000000000000000 ) ) ;
#304 = DIRECTION ( 'NONE',  ( -4.275831445896958607E-31, -1.000000000000000000, -1.224646799147353207E-16 ) ) ;
#305 = AXIS2_PLACEMENT_3D ( 'NONE', #272, #37, #303 ) ;
#306 = DATE_TIME_ROLE ( 'classification_date' ) ;
#307 = DIRECTION ( 'NONE',  ( 0.0000000000000000000, 1.000000000000000000, 0.0000000000000000000 ) ) ;
#308 = EDGE_LOOP ( 'NONE', ( #171 ) ) ;
#309 = FACE_OUTER_BOUND ( 'NONE', #241, .T. ) ;
#310 = CIRCLE ( 'NONE', #315, 3.000000000000002220 ) ;
#311 = CC_DESIGN_APPROVAL ( #324, ( #72 ) ) ;
#312 = DIRECTION ( 'NONE',  ( 3.491481338843133355E-15, -1.224646799147353207E-16, 1.000000000000000000 ) ) ;
#313 = CARTESIAN_POINT ( 'NONE',  ( 0.0000000000000000000, 0.0000000000000000000, 0.0000000000000000000 ) ) ;
#314 = CARTESIAN_POINT ( 'NONE',  ( 4.818244247603524030E-14, -1.690012582823347529E-15, 13.80000000000000071 ) ) ;
#315 = AXIS2_PLACEMENT_3D ( 'NONE', #280, #333, #230 ) ;
#316 = FACE_OUTER_BOUND ( 'NONE', #34, .T. ) ;
#317 = VERTEX_POINT ( 'NONE', #114 ) ;
#318 = ADVANCED_FACE ( 'NONE', ( #18, #309 ), #341, .T. ) ;
#319 = PRODUCT_DEFINITION_SHAPE ( 'NONE', 'NONE',  #106 ) ;
#320 = ORIENTED_EDGE ( 'NONE', *, *, #64, .T. ) ;
#321 = APPROVAL_ROLE ( '' ) ;
#322 = EDGE_LOOP ( 'NONE', ( #31 ) ) ;
#323 = ORIENTED_EDGE ( 'NONE', *, *, #275, .F. ) ;
#324 = APPROVAL ( #221, 'UNSPECIFIED' ) ;
#325 = AXIS2_PLACEMENT_3D ( 'NONE', #155, #124, #95 ) ;
#326 = EDGE_LOOP ( 'NONE', ( #80 ) ) ;
#327 =( GEOMETRIC_REPRESENTATION_CONTEXT ( 3 ) GLOBAL_UNCERTAINTY_ASSIGNED_CONTEXT ( ( #237 ) ) GLOBAL_UNIT_ASSIGNED_CONTEXT ( ( #170, #52, #217 ) ) REPRESENTATION_CONTEXT ( 'NONE', 'WORKASPACE' ) );
#328 = DIRECTION ( 'NONE',  ( 4.275831445896958607E-31, 1.000000000000000000, 1.224646799147353207E-16 ) ) ;
#329 = COORDINATED_UNIVERSAL_TIME_OFFSET ( 1, 0, .AHEAD. ) ;
#330 = PERSON ( 'UNSPECIFIED', 'UNSPECIFIED', 'UNSPECIFIED', ('UNSPECIFIED'), ('UNSPECIFIED'), ('UNSPECIFIED') ) ;
#331 = DIRECTION ( 'NONE',  ( 4.275831445896958607E-31, 1.000000000000000000, 1.224646799147353454E-16 ) ) ;
#332 = APPROVAL_DATE_TIME ( #279, #223 ) ;
#333 = DIRECTION ( 'NONE',  ( -3.491481338843133355E-15, 1.224646799147353207E-16, -1.000000000000000000 ) ) ;
#334 = AXIS2_PLACEMENT_3D ( 'NONE', #257, #190, #285 ) ;
#335 = SECURITY_CLASSIFICATION ( '', '', #128 ) ;
#336 = FACE_OUTER_BOUND ( 'NONE', #131, .T. ) ;
#337 = FACE_OUTER_BOUND ( 'NONE', #268, .T. ) ;
#338 = CARTESIAN_POINT ( 'NONE',  ( 3.864859865809860024E-14, -1.355610356888052086E-15, 11.06939860400468767 ) ) ;
#339 = CONICAL_SURFACE ( 'NONE', #49, 2.949999999999999734, 0.2094395102393123709 ) ;
#340 = DIRECTION ( 'NONE',  ( 0.0000000000000000000, 1.000000000000000000, 0.0000000000000000000 ) ) ;
#341 = CYLINDRICAL_SURFACE ( 'NONE', #262, 2.950000000000000178 ) ;
#342 = EDGE_CURVE ( 'NONE', #218, #218, #247, .T. ) ;
#343 = CARTESIAN_POINT ( 'NONE',  ( 2.304377683636468014E-14, -8.082668874372531019E-16, 6.599999999999999645 ) ) ;
ENDSEC;
END-ISO-10303-21;
