ISO-10303-21;
HEADER;
FILE_DESCRIPTION (( 'STEP AP203' ),
    '1' );
FILE_NAME ('384655.step',
    '2022-01-11T10:23:09',
    ( '' ),
    ( '' ),
    'SwSTEP 2.0',
    'SolidWorks 2019',
    '' );
FILE_SCHEMA (( 'CONFIG_CONTROL_DESIGN' ));
ENDSEC;

DATA;
#1 = AXIS2_PLACEMENT_3D ( 'NONE', #96, #46, #128 ) ;
#2 = DIRECTION ( 'NONE',  ( 3.491481338843133355E-15, -1.230835259046140666E-16, 1.000000000000000000 ) ) ;
#3 = EDGE_LOOP ( 'NONE', ( #52 ) ) ;
#4 = DIRECTION ( 'NONE',  ( 0.0000000000000000000, 1.000000000000000000, 0.0000000000000000000 ) ) ;
#5 = APPROVAL_ROLE ( '' ) ;
#6 = ORIENTED_EDGE ( 'NONE', *, *, #200, .T. ) ;
#7 = CARTESIAN_POINT ( 'NONE',  ( 1.326762908760390675E-14, -4.336808689942017736E-16, 3.799999999999999822 ) ) ;
#8 = AXIS2_PLACEMENT_3D ( 'NONE', #138, #114, #54 ) ;
#9 = CIRCLE ( 'NONE', #297, 1.249999999999999556 ) ;
#10 = EDGE_LOOP ( 'NONE', ( #217 ) ) ;
#11 = APPROVAL_DATE_TIME ( #215, #115 ) ;
#12 = EDGE_CURVE ( 'NONE', #204, #204, #273, .T. ) ;
#13 = EDGE_LOOP ( 'NONE', ( #290 ) ) ;
#14 = ADVANCED_FACE ( 'NONE', ( #98, #289 ), #181, .T. ) ;
#15 = FACE_OUTER_BOUND ( 'NONE', #211, .T. ) ;
#16 = CARTESIAN_POINT ( 'NONE',  ( 1.326762908760390675E-14, -4.336808689942017736E-16, 3.799999999999999822 ) ) ;
#17 = AXIS2_PLACEMENT_3D ( 'NONE', #256, #24, #155 ) ;
#18 = FACE_BOUND ( 'NONE', #3, .T. ) ;
#19 = DIRECTION ( 'NONE',  ( 5.222860866134876548E-31, 1.000000000000000000, 1.470104640658311001E-16 ) ) ;
#20 = FACE_OUTER_BOUND ( 'NONE', #10, .T. ) ;
#21 = EDGE_CURVE ( 'NONE', #158, #158, #191, .T. ) ;
#22 = CARTESIAN_POINT ( 'NONE',  ( 1.745740669421566678E-14, -5.813811000797386437E-16, 5.000000000000000000 ) ) ;
#23 = DIRECTION ( 'NONE',  ( -3.491481338843133355E-15, 1.230835259046140666E-16, -1.000000000000000000 ) ) ;
#24 = DIRECTION ( 'NONE',  ( 3.491481338843133355E-15, -1.224646799147353207E-16, 1.000000000000000000 ) ) ;
#25 = AXIS2_PLACEMENT_3D ( 'NONE', #218, #172, #67 ) ;
#26 = AXIS2_PLACEMENT_3D ( 'NONE', #16, #280, #4 ) ;
#27 = CARTESIAN_POINT ( 'NONE',  ( 1.745740669421566678E-14, 1.249999999999999556, 5.000000000000000000 ) ) ;
#28 = CARTESIAN_POINT ( 'NONE',  ( 1.326762908760390675E-14, -4.653657836759942730E-16, 3.799999999999999822 ) ) ;
#29 = EDGE_LOOP ( 'NONE', ( #243 ) ) ;
#30 = MANIFOLD_SOLID_BREP ( 'Corps-Déplacer/Copier3[1]', #173 ) ;
#31 = ORIENTED_EDGE ( 'NONE', *, *, #12, .F. ) ;
#32 =( GEOMETRIC_REPRESENTATION_CONTEXT ( 3 ) GLOBAL_UNCERTAINTY_ASSIGNED_CONTEXT ( ( #176 ) ) GLOBAL_UNIT_ASSIGNED_CONTEXT ( ( #303, #112, #210 ) ) REPRESENTATION_CONTEXT ( 'NONE', 'WORKASPACE' ) );
#33 = ADVANCED_FACE ( 'NONE', ( #171, #277 ), #271, .T. ) ;
#34 = APPROVAL_STATUS ( 'not_yet_approved' ) ;
#35 = APPROVAL_STATUS ( 'not_yet_approved' ) ;
#36 = PRODUCT_DEFINITION_SHAPE ( 'NONE', 'NONE',  #68 ) ;
#37 = APPROVAL_PERSON_ORGANIZATION ( #182, #205, #5 ) ;
#38 = ORIENTED_EDGE ( 'NONE', *, *, #195, .F. ) ;
#39 = ORIENTED_EDGE ( 'NONE', *, *, #160, .F. ) ;
#40 = DIRECTION ( 'NONE',  ( -3.491481338843133355E-15, 1.230835259046140666E-16, -1.000000000000000000 ) ) ;
#41 = CARTESIAN_POINT ( 'NONE',  ( 1.920314736363723472E-13, -6.735557395310442615E-15, 55.00000000000000000 ) ) ;
#42 = ORGANIZATION ( 'UNSPECIFIED', 'UNSPECIFIED', '' ) ;
#43 = CC_DESIGN_PERSON_AND_ORGANIZATION_ASSIGNMENT ( #190, #167, ( #68 ) ) ;
#44 = CYLINDRICAL_SURFACE ( 'NONE', #60, 2.950000000000000178 ) ;
#45 = CARTESIAN_POINT ( 'NONE',  ( -4.275735514808344153E-31, 1.499726134565474076E-32, -1.224619323391562353E-16 ) ) ;
#46 = DIRECTION ( 'NONE',  ( 0.0000000000000000000, 0.0000000000000000000, 1.000000000000000000 ) ) ;
#47 = AXIS2_PLACEMENT_3D ( 'NONE', #174, #251, #202 ) ;
#48 = FACE_BOUND ( 'NONE', #234, .T. ) ;
#49 = CARTESIAN_POINT ( 'NONE',  ( 1.326762908760390675E-14, 1.249999999999999556, 3.799999999999999822 ) ) ;
#50 = VERTEX_POINT ( 'NONE', #231 ) ;
#51 = AXIS2_PLACEMENT_3D ( 'NONE', #147, #106, #199 ) ;
#52 = ORIENTED_EDGE ( 'NONE', *, *, #109, .T. ) ;
#53 = EDGE_LOOP ( 'NONE', ( #93 ) ) ;
#54 = DIRECTION ( 'NONE',  ( 0.0000000000000000000, 1.000000000000000000, 0.0000000000000000000 ) ) ;
#55 = ADVANCED_FACE ( 'NONE', ( #18, #64 ), #149, .T. ) ;
#56 = COORDINATED_UNIVERSAL_TIME_OFFSET ( 1, 0, .AHEAD. ) ;
#57 = CALENDAR_DATE ( 2022, 11, 1 ) ;
#58 = ORIENTED_EDGE ( 'NONE', *, *, #226, .T. ) ;
#59 = EDGE_CURVE ( 'NONE', #278, #278, #295, .T. ) ;
#60 = AXIS2_PLACEMENT_3D ( 'NONE', #125, #197, #19 ) ;
#61 = EDGE_LOOP ( 'NONE', ( #161 ) ) ;
#62 = DIRECTION ( 'NONE',  ( 4.275831445896958607E-31, 1.000000000000000000, 1.224646799147353207E-16 ) ) ;
#63 = PLANE ( 'NONE',  #268 ) ;
#64 = FACE_OUTER_BOUND ( 'NONE', #242, .T. ) ;
#65 = CONICAL_SURFACE ( 'NONE', #116, 1.625000000000000000, 0.2094395102393125374 ) ;
#66 = CARTESIAN_POINT ( 'NONE',  ( 1.745740669421566678E-14, -5.813811000797386437E-16, 5.000000000000000000 ) ) ;
#67 = DIRECTION ( 'NONE',  ( 0.0000000000000000000, 1.000000000000000000, 0.0000000000000000000 ) ) ;
#68 = PRODUCT_DEFINITION ( 'UNKNOWN', '', #123, #254 ) ;
#69 = CARTESIAN_POINT ( 'NONE',  ( 3.922202660347612216E-14, 2.949999999999998845, 11.23363489505916668 ) ) ;
#70 = VERTEX_POINT ( 'NONE', #232 ) ;
#71 = DIRECTION ( 'NONE',  ( 0.0000000000000000000, -1.000000000000000000, 0.0000000000000000000 ) ) ;
#72 = ORIENTED_EDGE ( 'NONE', *, *, #250, .T. ) ;
#73 = DIRECTION ( 'NONE',  ( 0.0000000000000000000, 1.000000000000000000, 0.0000000000000000000 ) ) ;
#74 = SECURITY_CLASSIFICATION_LEVEL ( 'unclassified' ) ;
#75 = APPROVAL_PERSON_ORGANIZATION ( #239, #115, #163 ) ;
#76 = EDGE_LOOP ( 'NONE', ( #209 ) ) ;
#77 = ADVANCED_FACE ( 'NONE', ( #298 ), #121, .T. ) ;
#78 = ORIENTED_EDGE ( 'NONE', *, *, #21, .T. ) ;
#79 = CLOSED_SHELL ( 'NONE', ( #291, #216, #126 ) ) ;
#80 = CIRCLE ( 'NONE', #26, 1.250000000000000000 ) ;
#81 = EDGE_LOOP ( 'NONE', ( #78 ) ) ;
#82 = LOCAL_TIME ( 11, 23, 9.000000000000000000, #235 ) ;
#83 = DIRECTION ( 'NONE',  ( -3.491481338843133355E-15, 1.230835259046140666E-16, -1.000000000000000000 ) ) ;
#84 = PRODUCT_RELATED_PRODUCT_CATEGORY ( 'detail', '', ( #237 ) ) ;
#85 = DIRECTION ( 'NONE',  ( 4.297438338149754172E-31, 1.000000000000000000, 1.230835259046140666E-16 ) ) ;
#86 = FACE_OUTER_BOUND ( 'NONE', #13, .T. ) ;
#87 = FACE_OUTER_BOUND ( 'NONE', #281, .T. ) ;
#88 = DIRECTION ( 'NONE',  ( -3.491481338843133355E-15, 1.230835259046140666E-16, -1.000000000000000000 ) ) ;
#89 = PLANE ( 'NONE',  #17 ) ;
#90 = CC_DESIGN_APPROVAL ( #205, ( #123 ) ) ;
#91 = ADVANCED_FACE ( 'NONE', ( #87, #272 ), #102, .T. ) ;
#92 = DIRECTION ( 'NONE',  ( 5.135813185032631277E-31, 1.000000000000000000, 1.445602896647339903E-16 ) ) ;
#93 = ORIENTED_EDGE ( 'NONE', *, *, #250, .F. ) ;
#94 = DATE_AND_TIME ( #139, #178 ) ;
#95 = DIRECTION ( 'NONE',  ( -3.491481338843133355E-15, 1.224646799147353207E-16, -1.000000000000000000 ) ) ;
#96 = CARTESIAN_POINT ( 'NONE',  ( 0.0000000000000000000, 0.0000000000000000000, 0.0000000000000000000 ) ) ;
#97 = PERSON_AND_ORGANIZATION ( #134, #42 ) ;
#98 = FACE_OUTER_BOUND ( 'NONE', #208, .T. ) ;
#99 = ADVANCED_FACE ( 'NONE', ( #20 ), #63, .T. ) ;
#100 = DATE_TIME_ROLE ( 'creation_date' ) ;
#101 = PERSON_AND_ORGANIZATION_ROLE ( 'creator' ) ;
#102 = PLANE ( 'NONE',  #133 ) ;
#103 = APPLICATION_CONTEXT ( 'configuration controlled 3d designs of mechanical parts and assemblies' ) ;
#104 = CIRCLE ( 'NONE', #120, 3.000000000000002220 ) ;
#105 = APPROVAL_STATUS ( 'not_yet_approved' ) ;
#106 = DIRECTION ( 'NONE',  ( -3.491481338843133355E-15, 1.230835259046140666E-16, -1.000000000000000000 ) ) ;
#107 = CARTESIAN_POINT ( 'NONE',  ( 1.326762908760390675E-14, 9.373498641636604575E-33, 3.799999999999999822 ) ) ;
#108 = CARTESIAN_POINT ( 'NONE',  ( 1.920314736363723472E-13, -6.735557395310442615E-15, 55.00000000000000000 ) ) ;
#109 = EDGE_CURVE ( 'NONE', #50, #50, #238, .T. ) ;
#110 = DIRECTION ( 'NONE',  ( 4.275831445896959482E-31, 1.000000000000000000, 1.224646799147353207E-16 ) ) ;
#111 = CARTESIAN_POINT ( 'NONE',  ( 1.326762908760390675E-14, 1.249999999999999556, 3.799999999999999822 ) ) ;
#112 =( NAMED_UNIT ( * ) PLANE_ANGLE_UNIT ( ) SI_UNIT ( $, .RADIAN. ) );
#113 = AXIS2_PLACEMENT_3D ( 'NONE', #28, #95, #223 ) ;
#114 = DIRECTION ( 'NONE',  ( -3.491481338843133355E-15, 1.230835259046140666E-16, -1.000000000000000000 ) ) ;
#115 = APPROVAL ( #35, 'UNSPECIFIED' ) ;
#116 = AXIS2_PLACEMENT_3D ( 'NONE', #22, #2, #71 ) ;
#117 = CALENDAR_DATE ( 2022, 11, 1 ) ;
#118 = CC_DESIGN_PERSON_AND_ORGANIZATION_ASSIGNMENT ( #97, #142, ( #185 ) ) ;
#119 = PERSON_AND_ORGANIZATION ( #134, #42 ) ;
#120 = AXIS2_PLACEMENT_3D ( 'NONE', #170, #152, #249 ) ;
#121 = PLANE ( 'NONE',  #225 ) ;
#122 = DIRECTION ( 'NONE',  ( -3.491481338843133355E-15, 1.230835259046140666E-16, -1.000000000000000000 ) ) ;
#123 = PRODUCT_DEFINITION_FORMATION_WITH_SPECIFIED_SOURCE ( 'ANY', '', #237, .NOT_KNOWN. ) ;
#124 = DIRECTION ( 'NONE',  ( -4.297438338149754172E-31, -1.000000000000000000, -1.230835259046140666E-16 ) ) ;
#125 = CARTESIAN_POINT ( 'NONE',  ( 1.326762908760390675E-14, -4.336808689942017736E-16, 3.799999999999999822 ) ) ;
#126 = ADVANCED_FACE ( 'NONE', ( #153 ), #224, .T. ) ;
#127 = DIRECTION ( 'NONE',  ( -3.491481338843133355E-15, 1.224646799147353207E-16, -1.000000000000000000 ) ) ;
#128 = DIRECTION ( 'NONE',  ( 1.000000000000000000, 0.0000000000000000000, 0.0000000000000000000 ) ) ;
#129 = ADVANCED_FACE ( 'NONE', ( #86, #15 ), #44, .T. ) ;
#130 = CARTESIAN_POINT ( 'NONE',  ( 3.922202660347612216E-14, -1.348638862165659812E-15, 11.23363489505916668 ) ) ;
#131 = FACE_OUTER_BOUND ( 'NONE', #76, .T. ) ;
#132 = CARTESIAN_POINT ( 'NONE',  ( 4.888073874380386697E-14, 2.949999999999998845, 14.00000000000000000 ) ) ;
#133 = AXIS2_PLACEMENT_3D ( 'NONE', #148, #40, #246 ) ;
#134 = PERSON ( 'UNSPECIFIED', 'UNSPECIFIED', 'UNSPECIFIED', ('UNSPECIFIED'), ('UNSPECIFIED'), ('UNSPECIFIED') ) ;
#135 = LOCAL_TIME ( 11, 23, 9.000000000000000000, #240 ) ;
#136 = ORIENTED_EDGE ( 'NONE', *, *, #226, .F. ) ;
#137 = FACE_OUTER_BOUND ( 'NONE', #29, .T. ) ;
#138 = CARTESIAN_POINT ( 'NONE',  ( 4.888073874380386697E-14, -1.689132833221265366E-15, 14.00000000000000000 ) ) ;
#139 = CALENDAR_DATE ( 2022, 11, 1 ) ;
#140 = DIRECTION ( 'NONE',  ( -3.491481338843133355E-15, 1.230835259046140666E-16, -1.000000000000000000 ) ) ;
#141 = DATE_AND_TIME ( #57, #145 ) ;
#142 = PERSON_AND_ORGANIZATION_ROLE ( 'classification_officer' ) ;
#143 = ORIENTED_EDGE ( 'NONE', *, *, #200, .F. ) ;
#144 = AXIS2_PLACEMENT_3D ( 'NONE', #107, #201, #299 ) ;
#145 = LOCAL_TIME ( 11, 23, 9.000000000000000000, #56 ) ;
#146 = EDGE_LOOP ( 'NONE', ( #293 ) ) ;
#147 = CARTESIAN_POINT ( 'NONE',  ( 1.745740669421566678E-14, 1.624999999999999334, 5.000000000000000000 ) ) ;
#148 = CARTESIAN_POINT ( 'NONE',  ( 4.888073874380386697E-14, 2.999999999999993339, 14.00000000000000000 ) ) ;
#149 = CONICAL_SURFACE ( 'NONE', #25, 3.000000000000002220, 0.7853981633974450594 ) ;
#150 = APPROVAL_PERSON_ORGANIZATION ( #294, #220, #193 ) ;
#151 = CARTESIAN_POINT ( 'NONE',  ( 1.326762908760390675E-14, 1.249999999999999556, 3.799999999999999822 ) ) ;
#152 = DIRECTION ( 'NONE',  ( -3.491481338843133355E-15, 1.230835259046140666E-16, -1.000000000000000000 ) ) ;
#153 = FACE_OUTER_BOUND ( 'NONE', #146, .T. ) ;
#154 = DIRECTION ( 'NONE',  ( -3.491481338843133355E-15, 1.230835259046140666E-16, -1.000000000000000000 ) ) ;
#155 = DIRECTION ( 'NONE',  ( -4.275831445896958607E-31, -1.000000000000000000, -1.224646799147353207E-16 ) ) ;
#156 = FACE_OUTER_BOUND ( 'NONE', #236, .T. ) ;
#157 = EDGE_LOOP ( 'NONE', ( #72 ) ) ;
#158 = VERTEX_POINT ( 'NONE', #49 ) ;
#159 = AXIS2_PLACEMENT_3D ( 'NONE', #270, #296, #62 ) ;
#160 = EDGE_CURVE ( 'NONE', #229, #229, #184, .T. ) ;
#161 = ORIENTED_EDGE ( 'NONE', *, *, #59, .T. ) ;
#162 = MECHANICAL_CONTEXT ( 'NONE', #230, 'mechanical' ) ;
#163 = APPROVAL_ROLE ( '' ) ;
#164 = CARTESIAN_POINT ( 'NONE',  ( 1.326762908760390675E-14, -4.336808689942017736E-16, 3.799999999999999822 ) ) ;
#165 = CC_DESIGN_PERSON_AND_ORGANIZATION_ASSIGNMENT ( #119, #214, ( #123 ) ) ;
#166 = APPROVAL_DATE_TIME ( #188, #205 ) ;
#167 = PERSON_AND_ORGANIZATION_ROLE ( 'creator' ) ;
#168 = EDGE_LOOP ( 'NONE', ( #136 ) ) ;
#169 = CC_DESIGN_PERSON_AND_ORGANIZATION_ASSIGNMENT ( #283, #101, ( #123 ) ) ;
#170 = CARTESIAN_POINT ( 'NONE',  ( 1.899365848330664293E-13, -6.661707279767673785E-15, 54.39999999999999858 ) ) ;
#171 = FACE_OUTER_BOUND ( 'NONE', #61, .T. ) ;
#172 = DIRECTION ( 'NONE',  ( -3.491481338843133355E-15, 1.230835259046140666E-16, -1.000000000000000000 ) ) ;
#173 = CLOSED_SHELL ( 'NONE', ( #33, #269, #129, #91, #276, #55, #99, #77, #14 ) ) ;
#174 = CARTESIAN_POINT ( 'NONE',  ( 4.888073874380386697E-14, -1.689132833221265366E-15, 14.00000000000000000 ) ) ;
#175 = CYLINDRICAL_SURFACE ( 'NONE', #159, 1.249999999999999778 ) ;
#176 = UNCERTAINTY_MEASURE_WITH_UNIT (LENGTH_MEASURE( 1.000000000000000082E-05 ), #303, 'distance_accuracy_value', 'NONE');
#177 = VERTEX_POINT ( 'NONE', #27 ) ;
#178 = LOCAL_TIME ( 11, 23, 9.000000000000000000, #186 ) ;
#179 = CARTESIAN_POINT ( 'NONE',  ( 1.069053792562852354E-31, 1.249999999999999556, 3.061891755426287241E-17 ) ) ;
#180 = FACE_OUTER_BOUND ( 'NONE', #259, .T. ) ;
#181 = CYLINDRICAL_SURFACE ( 'NONE', #252, 1.250000000000000222 ) ;
#182 = PERSON_AND_ORGANIZATION ( #134, #42 ) ;
#183 = VERTEX_POINT ( 'NONE', #179 ) ;
#184 = CIRCLE ( 'NONE', #47, 2.950000000000000178 ) ;
#185 = SECURITY_CLASSIFICATION ( '', '', #74 ) ;
#186 = COORDINATED_UNIVERSAL_TIME_OFFSET ( 1, 0, .AHEAD. ) ;
#187 = EDGE_LOOP ( 'NONE', ( #143 ) ) ;
#188 = DATE_AND_TIME ( #265, #135 ) ;
#189 = CC_DESIGN_DATE_AND_TIME_ASSIGNMENT ( #141, #192, ( #185 ) ) ;
#190 = PERSON_AND_ORGANIZATION ( #134, #42 ) ;
#191 = CIRCLE ( 'NONE', #113, 1.250000000000000000 ) ;
#192 = DATE_TIME_ROLE ( 'classification_date' ) ;
#193 = APPROVAL_ROLE ( '' ) ;
#194 = PERSON_AND_ORGANIZATION ( #134, #42 ) ;
#195 = EDGE_CURVE ( 'NONE', #70, #70, #104, .T. ) ;
#196 = ORIENTED_EDGE ( 'NONE', *, *, #12, .T. ) ;
#197 = DIRECTION ( 'NONE',  ( -3.491481338843133355E-15, 1.230835259046140666E-16, -1.000000000000000000 ) ) ;
#198 = LOCAL_TIME ( 11, 23, 9.000000000000000000, #260 ) ;
#199 = DIRECTION ( 'NONE',  ( 4.297438338149754172E-31, 1.000000000000000000, 1.230835259046140666E-16 ) ) ;
#200 = EDGE_CURVE ( 'NONE', #183, #183, #9, .T. ) ;
#201 = DIRECTION ( 'NONE',  ( 3.491481338843133355E-15, -1.224646799147353207E-16, 1.000000000000000000 ) ) ;
#202 = DIRECTION ( 'NONE',  ( 0.0000000000000000000, 1.000000000000000000, 0.0000000000000000000 ) ) ;
#203 = FACE_OUTER_BOUND ( 'NONE', #187, .T. ) ;
#204 = VERTEX_POINT ( 'NONE', #282 ) ;
#205 = APPROVAL ( #34, 'UNSPECIFIED' ) ;
#206 = VERTEX_POINT ( 'NONE', #111 ) ;
#207 = CC_DESIGN_SECURITY_CLASSIFICATION ( #185, ( #123 ) ) ;
#208 = EDGE_LOOP ( 'NONE', ( #58 ) ) ;
#209 = ORIENTED_EDGE ( 'NONE', *, *, #195, .T. ) ;
#210 =( NAMED_UNIT ( * ) SI_UNIT ( $, .STERADIAN. ) SOLID_ANGLE_UNIT ( ) );
#211 = EDGE_LOOP ( 'NONE', ( #284 ) ) ;
#212 = CC_DESIGN_APPROVAL ( #115, ( #185 ) ) ;
#213 = CALENDAR_DATE ( 2022, 11, 1 ) ;
#214 = PERSON_AND_ORGANIZATION_ROLE ( 'design_supplier' ) ;
#215 = DATE_AND_TIME ( #117, #82 ) ;
#216 = ADVANCED_FACE ( 'NONE', ( #203, #302 ), #175, .T. ) ;
#217 = ORIENTED_EDGE ( 'NONE', *, *, #109, .F. ) ;
#218 = CARTESIAN_POINT ( 'NONE',  ( 1.899365848330664293E-13, -6.661707279767673785E-15, 54.39999999999999858 ) ) ;
#219 = DIRECTION ( 'NONE',  ( 0.0000000000000000000, 1.000000000000000000, 0.0000000000000000000 ) ) ;
#220 = APPROVAL ( #105, 'UNSPECIFIED' ) ;
#221 = AXIS2_PLACEMENT_3D ( 'NONE', #7, #154, #92 ) ;
#222 = DIRECTION ( 'NONE',  ( 0.0000000000000000000, 1.000000000000000000, 0.0000000000000000000 ) ) ;
#223 = DIRECTION ( 'NONE',  ( 0.0000000000000000000, 1.000000000000000000, 0.0000000000000000000 ) ) ;
#224 = PLANE ( 'NONE',  #144 ) ;
#225 = AXIS2_PLACEMENT_3D ( 'NONE', #151, #275, #85 ) ;
#226 = EDGE_CURVE ( 'NONE', #177, #177, #301, .T. ) ;
#227 = APPLICATION_PROTOCOL_DEFINITION ( 'international standard', 'config_control_design', 1994, #230 ) ;
#228 = MANIFOLD_SOLID_BREP ( 'Corps-Déplacer/Copier3[2]', #79 ) ;
#229 = VERTEX_POINT ( 'NONE', #132 ) ;
#230 = APPLICATION_CONTEXT ( 'configuration controlled 3d designs of mechanical parts and assemblies' ) ;
#231 = CARTESIAN_POINT ( 'NONE',  ( 1.920314736363723472E-13, 2.399999999999995914, 55.00000000000000000 ) ) ;
#232 = CARTESIAN_POINT ( 'NONE',  ( 1.899365848330664293E-13, 2.999999999999995559, 54.39999999999999858 ) ) ;
#233 = DIRECTION ( 'NONE',  ( 0.0000000000000000000, 1.000000000000000000, 0.0000000000000000000 ) ) ;
#234 = EDGE_LOOP ( 'NONE', ( #257 ) ) ;
#235 = COORDINATED_UNIVERSAL_TIME_OFFSET ( 1, 0, .AHEAD. ) ;
#236 = EDGE_LOOP ( 'NONE', ( #31 ) ) ;
#237 = PRODUCT ( '384655', '384655', '', ( #162 ) ) ;
#238 = CIRCLE ( 'NONE', #292, 2.400000000000003020 ) ;
#239 = PERSON_AND_ORGANIZATION ( #134, #42 ) ;
#240 = COORDINATED_UNIVERSAL_TIME_OFFSET ( 1, 0, .AHEAD. ) ;
#241 = APPROVAL_DATE_TIME ( #288, #220 ) ;
#242 = EDGE_LOOP ( 'NONE', ( #38 ) ) ;
#243 = ORIENTED_EDGE ( 'NONE', *, *, #262, .T. ) ;
#244 = CC_DESIGN_DATE_AND_TIME_ASSIGNMENT ( #94, #100, ( #68 ) ) ;
#245 = CARTESIAN_POINT ( 'NONE',  ( 1.745740669421566678E-14, -5.813811000797386437E-16, 5.000000000000000000 ) ) ;
#246 = DIRECTION ( 'NONE',  ( 4.297438338149754172E-31, 1.000000000000000000, 1.230835259046140666E-16 ) ) ;
#247 = APPLICATION_PROTOCOL_DEFINITION ( 'international standard', 'config_control_design', 1994, #103 ) ;
#248 = DIRECTION ( 'NONE',  ( 3.491481338843133355E-15, -1.230835259046140666E-16, 1.000000000000000000 ) ) ;
#249 = DIRECTION ( 'NONE',  ( 0.0000000000000000000, 1.000000000000000000, 0.0000000000000000000 ) ) ;
#250 = EDGE_CURVE ( 'NONE', #206, #206, #80, .T. ) ;
#251 = DIRECTION ( 'NONE',  ( -3.491481338843133355E-15, 1.230835259046140666E-16, -1.000000000000000000 ) ) ;
#252 = AXIS2_PLACEMENT_3D ( 'NONE', #164, #140, #233 ) ;
#253 = AXIS2_PLACEMENT_3D ( 'NONE', #130, #23, #73 ) ;
#254 = DESIGN_CONTEXT ( 'detailed design', #103, 'design' ) ;
#255 = VERTEX_POINT ( 'NONE', #69 ) ;
#256 = CARTESIAN_POINT ( 'NONE',  ( -2.137867757404172076E-31, 7.498630672827370379E-33, -6.123096616957811767E-17 ) ) ;
#257 = ORIENTED_EDGE ( 'NONE', *, *, #59, .F. ) ;
#258 = CARTESIAN_POINT ( 'NONE',  ( 1.745740669421566678E-14, 1.624999999999999334, 5.000000000000000000 ) ) ;
#259 = EDGE_LOOP ( 'NONE', ( #6 ) ) ;
#260 = COORDINATED_UNIVERSAL_TIME_OFFSET ( 1, 0, .AHEAD. ) ;
#261 = SHAPE_DEFINITION_REPRESENTATION ( #36, #264 ) ;
#262 = EDGE_CURVE ( 'NONE', #255, #255, #263, .T. ) ;
#263 = CIRCLE ( 'NONE', #253, 2.949999999999999734 ) ;
#264 = ADVANCED_BREP_SHAPE_REPRESENTATION ( '384655', ( #30, #228, #1 ), #32 ) ;
#265 = CALENDAR_DATE ( 2022, 11, 1 ) ;
#266 = PERSON_AND_ORGANIZATION_ROLE ( 'design_owner' ) ;
#267 = EDGE_LOOP ( 'NONE', ( #39 ) ) ;
#268 = AXIS2_PLACEMENT_3D ( 'NONE', #41, #248, #124 ) ;
#269 = ADVANCED_FACE ( 'NONE', ( #137, #48 ), #65, .T. ) ;
#270 = CARTESIAN_POINT ( 'NONE',  ( 0.0000000000000000000, 0.0000000000000000000, 0.0000000000000000000 ) ) ;
#271 = PLANE ( 'NONE',  #51 ) ;
#272 = FACE_BOUND ( 'NONE', #267, .T. ) ;
#273 = CIRCLE ( 'NONE', #8, 2.999999999999995115 ) ;
#274 = AXIS2_PLACEMENT_3D ( 'NONE', #245, #122, #219 ) ;
#275 = DIRECTION ( 'NONE',  ( -3.491481338843133355E-15, 1.230835259046140666E-16, -1.000000000000000000 ) ) ;
#276 = ADVANCED_FACE ( 'NONE', ( #131, #156 ), #279, .T. ) ;
#277 = FACE_BOUND ( 'NONE', #168, .T. ) ;
#278 = VERTEX_POINT ( 'NONE', #258 ) ;
#279 = CYLINDRICAL_SURFACE ( 'NONE', #221, 2.999999999999998668 ) ;
#280 = DIRECTION ( 'NONE',  ( -3.491481338843133355E-15, 1.230835259046140666E-16, -1.000000000000000000 ) ) ;
#281 = EDGE_LOOP ( 'NONE', ( #196 ) ) ;
#282 = CARTESIAN_POINT ( 'NONE',  ( 4.888073874380386697E-14, 2.999999999999993339, 14.00000000000000000 ) ) ;
#283 = PERSON_AND_ORGANIZATION ( #134, #42 ) ;
#284 = ORIENTED_EDGE ( 'NONE', *, *, #262, .F. ) ;
#285 = AXIS2_PLACEMENT_3D ( 'NONE', #66, #88, #300 ) ;
#286 = CC_DESIGN_APPROVAL ( #220, ( #68 ) ) ;
#287 = CC_DESIGN_PERSON_AND_ORGANIZATION_ASSIGNMENT ( #194, #266, ( #237 ) ) ;
#288 = DATE_AND_TIME ( #213, #198 ) ;
#289 = FACE_OUTER_BOUND ( 'NONE', #53, .T. ) ;
#290 = ORIENTED_EDGE ( 'NONE', *, *, #160, .T. ) ;
#291 = ADVANCED_FACE ( 'NONE', ( #180 ), #89, .F. ) ;
#292 = AXIS2_PLACEMENT_3D ( 'NONE', #108, #83, #222 ) ;
#293 = ORIENTED_EDGE ( 'NONE', *, *, #21, .F. ) ;
#294 = PERSON_AND_ORGANIZATION ( #134, #42 ) ;
#295 = CIRCLE ( 'NONE', #285, 1.625000000000000000 ) ;
#296 = DIRECTION ( 'NONE',  ( -3.491481338843133355E-15, 1.224646799147353207E-16, -1.000000000000000000 ) ) ;
#297 = AXIS2_PLACEMENT_3D ( 'NONE', #45, #127, #110 ) ;
#298 = FACE_OUTER_BOUND ( 'NONE', #157, .T. ) ;
#299 = DIRECTION ( 'NONE',  ( -4.275831445896958607E-31, -1.000000000000000000, -1.224646799147353207E-16 ) ) ;
#300 = DIRECTION ( 'NONE',  ( 0.0000000000000000000, 1.000000000000000000, 0.0000000000000000000 ) ) ;
#301 = CIRCLE ( 'NONE', #274, 1.250000000000000222 ) ;
#302 = FACE_OUTER_BOUND ( 'NONE', #81, .T. ) ;
#303 =( LENGTH_UNIT ( ) NAMED_UNIT ( * ) SI_UNIT ( .MILLI., .METRE. ) );
ENDSEC;
END-ISO-10303-21;
