ISO-10303-21;
HEADER;
FILE_DESCRIPTION (( 'STEP AP203' ),
    '1' );
FILE_NAME ('384654.step',
    '2022-01-11T10:23:08',
    ( '' ),
    ( '' ),
    'SwSTEP 2.0',
    'SolidWorks 2019',
    '' );
FILE_SCHEMA (( 'CONFIG_CONTROL_DESIGN' ));
ENDSEC;

DATA;
#1 = AXIS2_PLACEMENT_3D ( 'NONE', #315, #343, #74 ) ;
#2 = ADVANCED_FACE ( 'NONE', ( #143, #250 ), #49, .T. ) ;
#3 = DIRECTION ( 'NONE',  ( 4.382052623509996821E-31, 1.000000000000000000, 1.224646799147353207E-16 ) ) ;
#4 = CYLINDRICAL_SURFACE ( 'NONE', #82, 2.950000000000000178 ) ;
#5 = VERTEX_POINT ( 'NONE', #76 ) ;
#6 = CONICAL_SURFACE ( 'NONE', #212, 2.949999999999999734, 0.2094395102393125929 ) ;
#7 = VERTEX_POINT ( 'NONE', #107 ) ;
#8 = AXIS2_PLACEMENT_3D ( 'NONE', #175, #178, #252 ) ;
#9 = ORGANIZATION ( 'UNSPECIFIED', 'UNSPECIFIED', '' ) ;
#10 = DIRECTION ( 'NONE',  ( 4.275831445896958607E-31, 1.000000000000000000, 1.224646799147353207E-16 ) ) ;
#11 = ADVANCED_FACE ( 'NONE', ( #193, #61 ), #164, .T. ) ;
#12 = ORIENTED_EDGE ( 'NONE', *, *, #158, .T. ) ;
#13 = DIRECTION ( 'NONE',  ( 0.0000000000000000000, 1.000000000000000000, 0.0000000000000000000 ) ) ;
#14 = EDGE_LOOP ( 'NONE', ( #89 ) ) ;
#15 = ORIENTED_EDGE ( 'NONE', *, *, #139, .F. ) ;
#16 = AXIS2_PLACEMENT_3D ( 'NONE', #72, #177, #257 ) ;
#17 = CC_DESIGN_APPROVAL ( #157, ( #249 ) ) ;
#18 = PERSON_AND_ORGANIZATION ( #324, #9 ) ;
#19 = ORIENTED_EDGE ( 'NONE', *, *, #326, .T. ) ;
#20 = DATE_AND_TIME ( #46, #239 ) ;
#21 = DIRECTION ( 'NONE',  ( -3.491481338843133355E-15, 1.224646799147353207E-16, -1.000000000000000000 ) ) ;
#22 = AXIS2_PLACEMENT_3D ( 'NONE', #228, #123, #229 ) ;
#23 = CIRCLE ( 'NONE', #226, 1.000000000000000000 ) ;
#24 = DIRECTION ( 'NONE',  ( 4.275831445896958607E-31, 1.000000000000000000, 1.224646799147353207E-16 ) ) ;
#25 = CARTESIAN_POINT ( 'NONE',  ( 4.922988687768818031E-14, -1.726751986797767995E-15, 14.09999999999999964 ) ) ;
#26 = EDGE_CURVE ( 'NONE', #31, #31, #148, .T. ) ;
#27 = FACE_OUTER_BOUND ( 'NONE', #170, .T. ) ;
#28 = CIRCLE ( 'NONE', #182, 1.624999999999999778 ) ;
#29 = FACE_BOUND ( 'NONE', #63, .T. ) ;
#30 = CARTESIAN_POINT ( 'NONE',  ( 1.047444401652940007E-14, -3.673940397442059868E-16, 3.000000000000000000 ) ) ;
#31 = VERTEX_POINT ( 'NONE', #318 ) ;
#32 = AXIS2_PLACEMENT_3D ( 'NONE', #204, #68, #3 ) ;
#33 = CARTESIAN_POINT ( 'NONE',  ( -2.031056553062954126E-31, 7.123987400201754122E-33, -5.817177169092143331E-17 ) ) ;
#34 = AXIS2_PLACEMENT_3D ( 'NONE', #217, #197, #88 ) ;
#35 = CC_DESIGN_DATE_AND_TIME_ASSIGNMENT ( #142, #62, ( #249 ) ) ;
#36 = ORIENTED_EDGE ( 'NONE', *, *, #158, .F. ) ;
#37 = CIRCLE ( 'NONE', #298, 2.999999999999995115 ) ;
#38 = CIRCLE ( 'NONE', #133, 3.000000000000002220 ) ;
#39 = FACE_OUTER_BOUND ( 'NONE', #57, .T. ) ;
#40 = EDGE_LOOP ( 'NONE', ( #189 ) ) ;
#41 = CYLINDRICAL_SURFACE ( 'NONE', #109, 0.9999999999999997780 ) ;
#42 = CARTESIAN_POINT ( 'NONE',  ( 0.0000000000000000000, 0.0000000000000000000, 0.0000000000000000000 ) ) ;
#43 = PERSON_AND_ORGANIZATION_ROLE ( 'design_supplier' ) ;
#44 = EDGE_LOOP ( 'NONE', ( #134 ) ) ;
#45 = EDGE_LOOP ( 'NONE', ( #302 ) ) ;
#46 = CALENDAR_DATE ( 2022, 11, 1 ) ;
#47 = CARTESIAN_POINT ( 'NONE',  ( 1.920314736363723472E-13, 1.799711739194220919E-32, 55.00000000000000000 ) ) ;
#48 = CYLINDRICAL_SURFACE ( 'NONE', #22, 2.999999999999998668 ) ;
#49 = CONICAL_SURFACE ( 'NONE', #285, 1.189131028106960919, 0.2094395102393126762 ) ;
#50 = DIRECTION ( 'NONE',  ( -3.491481338843133355E-15, 1.224646799147353207E-16, -1.000000000000000000 ) ) ;
#51 = CARTESIAN_POINT ( 'NONE',  ( 1.396592535537253342E-14, -4.898587196589412829E-16, 4.000000000000000000 ) ) ;
#52 = CLOSED_SHELL ( 'NONE', ( #81, #11, #92, #2, #274, #209, #312, #125, #152, #184, #67 ) ) ;
#53 = DIRECTION ( 'NONE',  ( 0.0000000000000000000, 1.000000000000000000, 0.0000000000000000000 ) ) ;
#54 = EDGE_CURVE ( 'NONE', #130, #130, #276, .T. ) ;
#55 = CARTESIAN_POINT ( 'NONE',  ( 0.0000000000000000000, 0.0000000000000000000, 0.0000000000000000000 ) ) ;
#56 = FACE_OUTER_BOUND ( 'NONE', #166, .T. ) ;
#57 = EDGE_LOOP ( 'NONE', ( #162 ) ) ;
#58 = DIRECTION ( 'NONE',  ( -3.491481338843133355E-15, 1.224646799147353207E-16, -1.000000000000000000 ) ) ;
#59 = CARTESIAN_POINT ( 'NONE',  ( 1.780655482809997696E-14, -6.245698675651500839E-16, 5.099999999999999645 ) ) ;
#60 = DIRECTION ( 'NONE',  ( 0.0000000000000000000, 1.000000000000000000, 0.0000000000000000000 ) ) ;
#61 = FACE_OUTER_BOUND ( 'NONE', #14, .T. ) ;
#62 = DATE_TIME_ROLE ( 'creation_date' ) ;
#63 = EDGE_LOOP ( 'NONE', ( #140 ) ) ;
#64 = PERSON_AND_ORGANIZATION_ROLE ( 'creator' ) ;
#65 = EDGE_LOOP ( 'NONE', ( #241 ) ) ;
#66 = APPROVAL_PERSON_ORGANIZATION ( #333, #157, #337 ) ;
#67 = ADVANCED_FACE ( 'NONE', ( #145 ), #282, .F. ) ;
#68 = DIRECTION ( 'NONE',  ( -3.491481338843133355E-15, 1.224646799147353207E-16, -1.000000000000000000 ) ) ;
#69 = CALENDAR_DATE ( 2022, 11, 1 ) ;
#70 = FACE_BOUND ( 'NONE', #269, .T. ) ;
#71 = PERSON_AND_ORGANIZATION_ROLE ( 'classification_officer' ) ;
#72 = CARTESIAN_POINT ( 'NONE',  ( 1.047444401652940007E-14, 7.498798913309281197E-33, 3.000000000000000000 ) ) ;
#73 = AXIS2_PLACEMENT_3D ( 'NONE', #237, #294, #325 ) ;
#74 = DIRECTION ( 'NONE',  ( 4.275831445896958607E-31, 1.000000000000000000, 1.224646799147353207E-16 ) ) ;
#75 = DIRECTION ( 'NONE',  ( 0.0000000000000000000, 1.000000000000000000, 0.0000000000000000000 ) ) ;
#76 = CARTESIAN_POINT ( 'NONE',  ( 1.920314736363723472E-13, 2.399999999999995914, 55.00000000000000000 ) ) ;
#77 = CLOSED_SHELL ( 'NONE', ( #234, #340, #218 ) ) ;
#78 = CC_DESIGN_APPROVAL ( #95, ( #87 ) ) ;
#79 = DIRECTION ( 'NONE',  ( 3.491481338843133355E-15, -1.224646799147353207E-16, 1.000000000000000000 ) ) ;
#80 = CARTESIAN_POINT ( 'NONE',  ( 1.396592535537253342E-14, 0.9999999999999995559, 4.000000000000000000 ) ) ;
#81 = ADVANCED_FACE ( 'NONE', ( #100 ), #153, .F. ) ;
#82 = AXIS2_PLACEMENT_3D ( 'NONE', #55, #215, #10 ) ;
#83 = EDGE_LOOP ( 'NONE', ( #265 ) ) ;
#84 = EDGE_LOOP ( 'NONE', ( #305 ) ) ;
#85 = VERTEX_POINT ( 'NONE', #299 ) ;
#86 = DIRECTION ( 'NONE',  ( 0.0000000000000000000, -1.000000000000000000, 0.0000000000000000000 ) ) ;
#87 = PRODUCT_DEFINITION_FORMATION_WITH_SPECIFIED_SOURCE ( 'ANY', '', #253, .NOT_KNOWN. ) ;
#88 = DIRECTION ( 'NONE',  ( 1.000000000000000000, 0.0000000000000000000, 0.0000000000000000000 ) ) ;
#89 = ORIENTED_EDGE ( 'NONE', *, *, #111, .T. ) ;
#90 = PERSON_AND_ORGANIZATION ( #324, #9 ) ;
#91 = EDGE_LOOP ( 'NONE', ( #334 ) ) ;
#92 = ADVANCED_FACE ( 'NONE', ( #122, #286 ), #330, .F. ) ;
#93 = PERSON_AND_ORGANIZATION ( #324, #9 ) ;
#94 = DIRECTION ( 'NONE',  ( -3.491481338843133355E-15, 1.224646799147353207E-16, -1.000000000000000000 ) ) ;
#95 = APPROVAL ( #201, 'UNSPECIFIED' ) ;
#96 = DIRECTION ( 'NONE',  ( -3.491481338843133355E-15, 1.224646799147353207E-16, -1.000000000000000000 ) ) ;
#97 = PERSON_AND_ORGANIZATION ( #324, #9 ) ;
#98 = DIRECTION ( 'NONE',  ( 0.0000000000000000000, -1.000000000000000000, 0.0000000000000000000 ) ) ;
#99 = ADVANCED_BREP_SHAPE_REPRESENTATION ( '384654', ( #247, #131, #34 ), #322 ) ;
#100 = FACE_OUTER_BOUND ( 'NONE', #83, .T. ) ;
#101 = CC_DESIGN_PERSON_AND_ORGANIZATION_ASSIGNMENT ( #90, #64, ( #87 ) ) ;
#102 = AXIS2_PLACEMENT_3D ( 'NONE', #219, #94, #117 ) ;
#103 = CARTESIAN_POINT ( 'NONE',  ( 4.922988687768818031E-14, -1.726751986797767995E-15, 14.09999999999999964 ) ) ;
#104 = VERTEX_POINT ( 'NONE', #154 ) ;
#105 = EDGE_CURVE ( 'NONE', #135, #135, #169, .T. ) ;
#106 = CARTESIAN_POINT ( 'NONE',  ( 1.047444401652940007E-14, 0.9999999999999995559, 3.000000000000000000 ) ) ;
#107 = CARTESIAN_POINT ( 'NONE',  ( 1.780655482809997696E-14, 1.189131028106960253, 5.099999999999999645 ) ) ;
#108 = DIRECTION ( 'NONE',  ( -3.491481338843133355E-15, 1.224646799147353207E-16, -1.000000000000000000 ) ) ;
#109 = AXIS2_PLACEMENT_3D ( 'NONE', #190, #260, #291 ) ;
#110 = EDGE_LOOP ( 'NONE', ( #196 ) ) ;
#111 = EDGE_CURVE ( 'NONE', #240, #240, #118, .T. ) ;
#112 = DIRECTION ( 'NONE',  ( -3.491481338843133355E-15, 1.224646799147353207E-16, -1.000000000000000000 ) ) ;
#113 = DIRECTION ( 'NONE',  ( 3.491481338843133355E-15, -1.224646799147353207E-16, 1.000000000000000000 ) ) ;
#114 = ORIENTED_EDGE ( 'NONE', *, *, #268, .T. ) ;
#115 = EDGE_LOOP ( 'NONE', ( #277 ) ) ;
#116 = PERSON_AND_ORGANIZATION_ROLE ( 'creator' ) ;
#117 = DIRECTION ( 'NONE',  ( 0.0000000000000000000, 1.000000000000000000, 0.0000000000000000000 ) ) ;
#118 = CIRCLE ( 'NONE', #191, 1.000000000000000000 ) ;
#119 = LOCAL_TIME ( 11, 23, 8.000000000000000000, #309 ) ;
#120 = COORDINATED_UNIVERSAL_TIME_OFFSET ( 1, 0, .AHEAD. ) ;
#121 = FACE_OUTER_BOUND ( 'NONE', #115, .T. ) ;
#122 = FACE_OUTER_BOUND ( 'NONE', #296, .T. ) ;
#123 = DIRECTION ( 'NONE',  ( -3.491481338843133355E-15, 1.224646799147353207E-16, -1.000000000000000000 ) ) ;
#124 = CONICAL_SURFACE ( 'NONE', #208, 2.400000000000003020, 0.7853981633974450594 ) ;
#125 = ADVANCED_FACE ( 'NONE', ( #289, #310 ), #173, .F. ) ;
#126 = DIRECTION ( 'NONE',  ( 0.0000000000000000000, 1.000000000000000000, 0.0000000000000000000 ) ) ;
#127 = DIRECTION ( 'NONE',  ( -4.275831445896958607E-31, -1.000000000000000000, -1.224646799147353207E-16 ) ) ;
#128 = CARTESIAN_POINT ( 'NONE',  ( 2.137183397710487667E-32, 0.9999999999999995559, 6.121136532892404794E-18 ) ) ;
#129 = AXIS2_PLACEMENT_3D ( 'NONE', #47, #50, #24 ) ;
#130 = VERTEX_POINT ( 'NONE', #128 ) ;
#131 = MANIFOLD_SOLID_BREP ( 'Corps-Déplacer/Copier1[2]', #77 ) ;
#132 = AXIS2_PLACEMENT_3D ( 'NONE', #198, #316, #288 ) ;
#133 = AXIS2_PLACEMENT_3D ( 'NONE', #261, #262, #270 ) ;
#134 = ORIENTED_EDGE ( 'NONE', *, *, #290, .F. ) ;
#135 = VERTEX_POINT ( 'NONE', #235 ) ;
#136 = EDGE_LOOP ( 'NONE', ( #195 ) ) ;
#137 = CALENDAR_DATE ( 2022, 11, 1 ) ;
#138 = DIRECTION ( 'NONE',  ( -3.491481338843133355E-15, 1.224646799147353207E-16, -1.000000000000000000 ) ) ;
#139 = EDGE_CURVE ( 'NONE', #266, #266, #181, .T. ) ;
#140 = ORIENTED_EDGE ( 'NONE', *, *, #290, .T. ) ;
#141 = APPROVAL_PERSON_ORGANIZATION ( #244, #238, #248 ) ;
#142 = DATE_AND_TIME ( #224, #119 ) ;
#143 = FACE_BOUND ( 'NONE', #300, .T. ) ;
#144 = APPROVAL_DATE_TIME ( #307, #157 ) ;
#145 = FACE_OUTER_BOUND ( 'NONE', #44, .T. ) ;
#146 = CALENDAR_DATE ( 2022, 11, 1 ) ;
#147 = DIRECTION ( 'NONE',  ( -3.491481338843133355E-15, 1.224646799147353207E-16, -1.000000000000000000 ) ) ;
#148 = CIRCLE ( 'NONE', #102, 2.949999999999999734 ) ;
#149 = AXIS2_PLACEMENT_3D ( 'NONE', #292, #112, #60 ) ;
#150 = CARTESIAN_POINT ( 'NONE',  ( 4.922988687768818031E-14, 4.461785353419020636E-32, 14.09999999999999964 ) ) ;
#151 = CARTESIAN_POINT ( 'NONE',  ( 1.541776493260754402E-14, -5.407823969919962032E-16, 4.415823381635505029 ) ) ;
#152 = ADVANCED_FACE ( 'NONE', ( #258, #27 ), #48, .T. ) ;
#153 = PLANE ( 'NONE',  #132 ) ;
#154 = CARTESIAN_POINT ( 'NONE',  ( 4.922988687768818031E-14, 2.999999999999993339, 14.09999999999999964 ) ) ;
#155 = PLANE ( 'NONE',  #230 ) ;
#156 = FACE_OUTER_BOUND ( 'NONE', #188, .T. ) ;
#157 = APPROVAL ( #172, 'UNSPECIFIED' ) ;
#158 = EDGE_CURVE ( 'NONE', #85, #85, #245, .T. ) ;
#159 = ORIENTED_EDGE ( 'NONE', *, *, #187, .T. ) ;
#160 = DIRECTION ( 'NONE',  ( 0.0000000000000000000, 1.000000000000000000, 0.0000000000000000000 ) ) ;
#161 = AXIS2_PLACEMENT_3D ( 'NONE', #151, #21, #205 ) ;
#162 = ORIENTED_EDGE ( 'NONE', *, *, #54, .T. ) ;
#163 = FACE_OUTER_BOUND ( 'NONE', #246, .T. ) ;
#164 = CYLINDRICAL_SURFACE ( 'NONE', #321, 1.000000000000000000 ) ;
#165 = DATE_AND_TIME ( #69, #338 ) ;
#166 = EDGE_LOOP ( 'NONE', ( #114 ) ) ;
#167 = CC_DESIGN_PERSON_AND_ORGANIZATION_ASSIGNMENT ( #341, #116, ( #249 ) ) ;
#168 = APPLICATION_PROTOCOL_DEFINITION ( 'international standard', 'config_control_design', 1994, #231 ) ;
#169 = CIRCLE ( 'NONE', #8, 1.000000000000000000 ) ;
#170 = EDGE_LOOP ( 'NONE', ( #19 ) ) ;
#171 = CC_DESIGN_APPROVAL ( #238, ( #267 ) ) ;
#172 = APPROVAL_STATUS ( 'not_yet_approved' ) ;
#173 = PLANE ( 'NONE',  #263 ) ;
#174 = APPROVAL_DATE_TIME ( #165, #95 ) ;
#175 = CARTESIAN_POINT ( 'NONE',  ( 1.047444401652940007E-14, -3.673940397442059868E-16, 3.000000000000000000 ) ) ;
#176 = APPROVAL_STATUS ( 'not_yet_approved' ) ;
#177 = DIRECTION ( 'NONE',  ( 3.491481338843133355E-15, -1.224646799147353207E-16, 1.000000000000000000 ) ) ;
#178 = DIRECTION ( 'NONE',  ( -3.491481338843133355E-15, 1.224646799147353207E-16, -1.000000000000000000 ) ) ;
#179 = DIRECTION ( 'NONE',  ( -3.491481338843133355E-15, 1.224646799147353207E-16, -1.000000000000000000 ) ) ;
#180 = VERTEX_POINT ( 'NONE', #106 ) ;
#181 = CIRCLE ( 'NONE', #161, 1.043704798532385958 ) ;
#182 = AXIS2_PLACEMENT_3D ( 'NONE', #183, #108, #13 ) ;
#183 = CARTESIAN_POINT ( 'NONE',  ( 1.780655482809998011E-14, -6.245698675651501825E-16, 5.100000000000000533 ) ) ;
#184 = ADVANCED_FACE ( 'NONE', ( #259, #29 ), #124, .T. ) ;
#185 = PLANE ( 'NONE',  #73 ) ;
#186 = CIRCLE ( 'NONE', #254, 1.189131028106960919 ) ;
#187 = EDGE_CURVE ( 'NONE', #7, #7, #186, .T. ) ;
#188 = EDGE_LOOP ( 'NONE', ( #12 ) ) ;
#189 = ORIENTED_EDGE ( 'NONE', *, *, #105, .T. ) ;
#190 = CARTESIAN_POINT ( 'NONE',  ( 0.0000000000000000000, 0.0000000000000000000, 0.0000000000000000000 ) ) ;
#191 = AXIS2_PLACEMENT_3D ( 'NONE', #51, #336, #75 ) ;
#192 = AXIS2_PLACEMENT_3D ( 'NONE', #103, #179, #339 ) ;
#193 = FACE_OUTER_BOUND ( 'NONE', #84, .T. ) ;
#194 = PERSON_AND_ORGANIZATION_ROLE ( 'design_owner' ) ;
#195 = ORIENTED_EDGE ( 'NONE', *, *, #187, .F. ) ;
#196 = ORIENTED_EDGE ( 'NONE', *, *, #326, .F. ) ;
#197 = DIRECTION ( 'NONE',  ( 0.0000000000000000000, 0.0000000000000000000, 1.000000000000000000 ) ) ;
#198 = CARTESIAN_POINT ( 'NONE',  ( 1.047444401652940007E-14, 7.498798913309281197E-33, 3.000000000000000000 ) ) ;
#199 = APPROVAL_ROLE ( '' ) ;
#200 = DIRECTION ( 'NONE',  ( 0.0000000000000000000, 1.000000000000000000, 0.0000000000000000000 ) ) ;
#201 = APPROVAL_STATUS ( 'not_yet_approved' ) ;
#202 = FACE_OUTER_BOUND ( 'NONE', #216, .T. ) ;
#203 = UNCERTAINTY_MEASURE_WITH_UNIT (LENGTH_MEASURE( 1.000000000000000082E-05 ), #293, 'distance_accuracy_value', 'NONE');
#204 = CARTESIAN_POINT ( 'NONE',  ( 1.396592535537253342E-14, -4.336808689942017736E-16, 4.000000000000000000 ) ) ;
#205 = DIRECTION ( 'NONE',  ( 0.0000000000000000000, 1.000000000000000000, 0.0000000000000000000 ) ) ;
#206 = CARTESIAN_POINT ( 'NONE',  ( 1.780655482809998011E-14, 1.624999999999999112, 5.100000000000000533 ) ) ;
#207 = VERTEX_POINT ( 'NONE', #320 ) ;
#208 = AXIS2_PLACEMENT_3D ( 'NONE', #308, #147, #126 ) ;
#209 = ADVANCED_FACE ( 'NONE', ( #70, #121 ), #6, .T. ) ;
#210 = FACE_BOUND ( 'NONE', #136, .T. ) ;
#211 = FACE_OUTER_BOUND ( 'NONE', #40, .T. ) ;
#212 = AXIS2_PLACEMENT_3D ( 'NONE', #227, #342, #98 ) ;
#213 = CC_DESIGN_DATE_AND_TIME_ASSIGNMENT ( #272, #275, ( #267 ) ) ;
#214 = ORIENTED_EDGE ( 'NONE', *, *, #26, .F. ) ;
#215 = DIRECTION ( 'NONE',  ( -3.491481338843133355E-15, 1.224646799147353207E-16, -1.000000000000000000 ) ) ;
#216 = EDGE_LOOP ( 'NONE', ( #220 ) ) ;
#217 = CARTESIAN_POINT ( 'NONE',  ( 0.0000000000000000000, 0.0000000000000000000, 0.0000000000000000000 ) ) ;
#218 = ADVANCED_FACE ( 'NONE', ( #202 ), #313, .T. ) ;
#219 = CARTESIAN_POINT ( 'NONE',  ( 3.957117473736043550E-14, -1.387969969693895498E-15, 11.33363489505916633 ) ) ;
#220 = ORIENTED_EDGE ( 'NONE', *, *, #105, .F. ) ;
#221 = APPROVAL_DATE_TIME ( #20, #238 ) ;
#222 = EDGE_LOOP ( 'NONE', ( #159 ) ) ;
#223 = EDGE_CURVE ( 'NONE', #104, #104, #37, .T. ) ;
#224 = CALENDAR_DATE ( 2022, 11, 1 ) ;
#225 = DIRECTION ( 'NONE',  ( -4.275831445896958607E-31, -1.000000000000000000, -1.224646799147353207E-16 ) ) ;
#226 = AXIS2_PLACEMENT_3D ( 'NONE', #30, #232, #53 ) ;
#227 = CARTESIAN_POINT ( 'NONE',  ( 3.957117473736043550E-14, -1.387969969693895498E-15, 11.33363489505916633 ) ) ;
#228 = CARTESIAN_POINT ( 'NONE',  ( 0.0000000000000000000, 0.0000000000000000000, 0.0000000000000000000 ) ) ;
#229 = DIRECTION ( 'NONE',  ( 4.275831445896958607E-31, 1.000000000000000000, 1.224646799147353454E-16 ) ) ;
#230 = AXIS2_PLACEMENT_3D ( 'NONE', #33, #79, #127 ) ;
#231 = APPLICATION_CONTEXT ( 'configuration controlled 3d designs of mechanical parts and assemblies' ) ;
#232 = DIRECTION ( 'NONE',  ( -3.491481338843133355E-15, 1.224646799147353207E-16, -1.000000000000000000 ) ) ;
#233 = CARTESIAN_POINT ( 'NONE',  ( 1.541776493260754402E-14, 1.043704798532385514, 4.415823381635505029 ) ) ;
#234 = ADVANCED_FACE ( 'NONE', ( #39 ), #155, .F. ) ;
#235 = CARTESIAN_POINT ( 'NONE',  ( 1.047444401652940007E-14, 0.9999999999999995559, 3.000000000000000000 ) ) ;
#236 = CIRCLE ( 'NONE', #149, 2.400000000000003020 ) ;
#237 = CARTESIAN_POINT ( 'NONE',  ( 1.780655482809998011E-14, -8.511857491755995013E-32, 5.100000000000000533 ) ) ;
#238 = APPROVAL ( #176, 'UNSPECIFIED' ) ;
#239 = LOCAL_TIME ( 11, 23, 8.000000000000000000, #278 ) ;
#240 = VERTEX_POINT ( 'NONE', #80 ) ;
#241 = ORIENTED_EDGE ( 'NONE', *, *, #111, .F. ) ;
#242 =( NAMED_UNIT ( * ) SI_UNIT ( $, .STERADIAN. ) SOLID_ANGLE_UNIT ( ) );
#243 = DIRECTION ( 'NONE',  ( 4.275831445896958607E-31, 1.000000000000000000, 1.224646799147353207E-16 ) ) ;
#244 = PERSON_AND_ORGANIZATION ( #324, #9 ) ;
#245 = CIRCLE ( 'NONE', #192, 2.950000000000000178 ) ;
#246 = EDGE_LOOP ( 'NONE', ( #214 ) ) ;
#247 = MANIFOLD_SOLID_BREP ( 'Corps-Déplacer/Copier1[1]', #52 ) ;
#248 = APPROVAL_ROLE ( '' ) ;
#249 = PRODUCT_DEFINITION ( 'UNKNOWN', '', #87, #287 ) ;
#250 = FACE_OUTER_BOUND ( 'NONE', #222, .T. ) ;
#251 = COORDINATED_UNIVERSAL_TIME_OFFSET ( 1, 0, .AHEAD. ) ;
#252 = DIRECTION ( 'NONE',  ( 0.0000000000000000000, 1.000000000000000000, 0.0000000000000000000 ) ) ;
#253 = PRODUCT ( '384654', '384654', '', ( #301 ) ) ;
#254 = AXIS2_PLACEMENT_3D ( 'NONE', #255, #96, #200 ) ;
#255 = CARTESIAN_POINT ( 'NONE',  ( 1.780655482809997696E-14, -6.245698675651500839E-16, 5.099999999999999645 ) ) ;
#256 = LOCAL_TIME ( 11, 23, 8.000000000000000000, #120 ) ;
#257 = DIRECTION ( 'NONE',  ( -4.275831445896958607E-31, -1.000000000000000000, -1.224646799147353207E-16 ) ) ;
#258 = FACE_OUTER_BOUND ( 'NONE', #45, .T. ) ;
#259 = FACE_OUTER_BOUND ( 'NONE', #110, .T. ) ;
#260 = DIRECTION ( 'NONE',  ( -3.491481338843133355E-15, 1.224646799147353207E-16, -1.000000000000000000 ) ) ;
#261 = CARTESIAN_POINT ( 'NONE',  ( 1.899365848330664293E-13, -6.662078587361600895E-15, 54.39999999999999858 ) ) ;
#262 = DIRECTION ( 'NONE',  ( -3.491481338843133355E-15, 1.224646799147353207E-16, -1.000000000000000000 ) ) ;
#263 = AXIS2_PLACEMENT_3D ( 'NONE', #150, #279, #225 ) ;
#264 = APPROVAL_PERSON_ORGANIZATION ( #97, #95, #199 ) ;
#265 = ORIENTED_EDGE ( 'NONE', *, *, #303, .T. ) ;
#266 = VERTEX_POINT ( 'NONE', #233 ) ;
#267 = SECURITY_CLASSIFICATION ( '', '', #281 ) ;
#268 = EDGE_CURVE ( 'NONE', #323, #323, #28, .T. ) ;
#269 = EDGE_LOOP ( 'NONE', ( #329 ) ) ;
#270 = DIRECTION ( 'NONE',  ( 0.0000000000000000000, 1.000000000000000000, 0.0000000000000000000 ) ) ;
#271 = EDGE_LOOP ( 'NONE', ( #273 ) ) ;
#272 = DATE_AND_TIME ( #146, #331 ) ;
#273 = ORIENTED_EDGE ( 'NONE', *, *, #54, .F. ) ;
#274 = ADVANCED_FACE ( 'NONE', ( #210, #56 ), #185, .F. ) ;
#275 = DATE_TIME_ROLE ( 'classification_date' ) ;
#276 = CIRCLE ( 'NONE', #1, 0.9999999999999995559 ) ;
#277 = ORIENTED_EDGE ( 'NONE', *, *, #26, .T. ) ;
#278 = COORDINATED_UNIVERSAL_TIME_OFFSET ( 1, 0, .AHEAD. ) ;
#279 = DIRECTION ( 'NONE',  ( 3.491481338843133355E-15, -1.224646799147353207E-16, 1.000000000000000000 ) ) ;
#280 = APPLICATION_CONTEXT ( 'configuration controlled 3d designs of mechanical parts and assemblies' ) ;
#281 = SECURITY_CLASSIFICATION_LEVEL ( 'unclassified' ) ;
#282 = PLANE ( 'NONE',  #129 ) ;
#283 = SHAPE_DEFINITION_REPRESENTATION ( #284, #99 ) ;
#284 = PRODUCT_DEFINITION_SHAPE ( 'NONE', 'NONE',  #249 ) ;
#285 = AXIS2_PLACEMENT_3D ( 'NONE', #59, #113, #86 ) ;
#286 = FACE_OUTER_BOUND ( 'NONE', #65, .T. ) ;
#287 = DESIGN_CONTEXT ( 'detailed design', #231, 'design' ) ;
#288 = DIRECTION ( 'NONE',  ( -4.275831445896958607E-31, -1.000000000000000000, -1.224646799147353207E-16 ) ) ;
#289 = FACE_BOUND ( 'NONE', #297, .T. ) ;
#290 = EDGE_CURVE ( 'NONE', #5, #5, #236, .T. ) ;
#291 = DIRECTION ( 'NONE',  ( 4.275831445896958607E-31, 1.000000000000000000, 1.224646799147353207E-16 ) ) ;
#292 = CARTESIAN_POINT ( 'NONE',  ( 1.920314736363723472E-13, -6.735557395310442615E-15, 55.00000000000000000 ) ) ;
#293 =( LENGTH_UNIT ( ) NAMED_UNIT ( * ) SI_UNIT ( .MILLI., .METRE. ) );
#294 = DIRECTION ( 'NONE',  ( 3.491481338843133355E-15, -1.224646799147353207E-16, 1.000000000000000000 ) ) ;
#295 = CC_DESIGN_SECURITY_CLASSIFICATION ( #267, ( #87 ) ) ;
#296 = EDGE_LOOP ( 'NONE', ( #327 ) ) ;
#297 = EDGE_LOOP ( 'NONE', ( #36 ) ) ;
#298 = AXIS2_PLACEMENT_3D ( 'NONE', #25, #58, #160 ) ;
#299 = CARTESIAN_POINT ( 'NONE',  ( 4.922988687768818031E-14, 2.949999999999998845, 14.09999999999999964 ) ) ;
#300 = EDGE_LOOP ( 'NONE', ( #15 ) ) ;
#301 = MECHANICAL_CONTEXT ( 'NONE', #280, 'mechanical' ) ;
#302 = ORIENTED_EDGE ( 'NONE', *, *, #223, .F. ) ;
#303 = EDGE_CURVE ( 'NONE', #180, #180, #23, .T. ) ;
#304 = APPLICATION_PROTOCOL_DEFINITION ( 'international standard', 'config_control_design', 1994, #280 ) ;
#305 = ORIENTED_EDGE ( 'NONE', *, *, #303, .F. ) ;
#306 = CC_DESIGN_PERSON_AND_ORGANIZATION_ASSIGNMENT ( #93, #43, ( #87 ) ) ;
#307 = DATE_AND_TIME ( #137, #256 ) ;
#308 = CARTESIAN_POINT ( 'NONE',  ( 1.920314736363723472E-13, -6.735557395310442615E-15, 55.00000000000000000 ) ) ;
#309 = COORDINATED_UNIVERSAL_TIME_OFFSET ( 1, 0, .AHEAD. ) ;
#310 = FACE_OUTER_BOUND ( 'NONE', #91, .T. ) ;
#311 = PERSON_AND_ORGANIZATION ( #324, #9 ) ;
#312 = ADVANCED_FACE ( 'NONE', ( #163, #156 ), #4, .T. ) ;
#313 = PLANE ( 'NONE',  #16 ) ;
#314 = PRODUCT_RELATED_PRODUCT_CATEGORY ( 'detail', '', ( #253 ) ) ;
#315 = CARTESIAN_POINT ( 'NONE',  ( -4.062113106125908252E-31, 1.424797480040350824E-32, -1.163435433818428666E-16 ) ) ;
#316 = DIRECTION ( 'NONE',  ( 3.491481338843133355E-15, -1.224646799147353207E-16, 1.000000000000000000 ) ) ;
#317 = CC_DESIGN_PERSON_AND_ORGANIZATION_ASSIGNMENT ( #18, #194, ( #253 ) ) ;
#318 = CARTESIAN_POINT ( 'NONE',  ( 3.957117473736043550E-14, 2.949999999999998845, 11.33363489505916633 ) ) ;
#319 = CC_DESIGN_PERSON_AND_ORGANIZATION_ASSIGNMENT ( #311, #71, ( #267 ) ) ;
#320 = CARTESIAN_POINT ( 'NONE',  ( 1.899365848330664293E-13, 2.999999999999995559, 54.39999999999999858 ) ) ;
#321 = AXIS2_PLACEMENT_3D ( 'NONE', #42, #138, #243 ) ;
#322 =( GEOMETRIC_REPRESENTATION_CONTEXT ( 3 ) GLOBAL_UNCERTAINTY_ASSIGNED_CONTEXT ( ( #203 ) ) GLOBAL_UNIT_ASSIGNED_CONTEXT ( ( #293, #335, #242 ) ) REPRESENTATION_CONTEXT ( 'NONE', 'WORKASPACE' ) );
#323 = VERTEX_POINT ( 'NONE', #206 ) ;
#324 = PERSON ( 'UNSPECIFIED', 'UNSPECIFIED', 'UNSPECIFIED', ('UNSPECIFIED'), ('UNSPECIFIED'), ('UNSPECIFIED') ) ;
#325 = DIRECTION ( 'NONE',  ( -4.275831445896958607E-31, -1.000000000000000000, -1.224646799147353207E-16 ) ) ;
#326 = EDGE_CURVE ( 'NONE', #207, #207, #38, .T. ) ;
#327 = ORIENTED_EDGE ( 'NONE', *, *, #139, .T. ) ;
#328 = FACE_OUTER_BOUND ( 'NONE', #271, .T. ) ;
#329 = ORIENTED_EDGE ( 'NONE', *, *, #268, .F. ) ;
#330 = TOROIDAL_SURFACE ( 'NONE', #32, 2.999999999999999556, 1.999999999999999556 ) ;
#331 = LOCAL_TIME ( 11, 23, 8.000000000000000000, #332 ) ;
#332 = COORDINATED_UNIVERSAL_TIME_OFFSET ( 1, 0, .AHEAD. ) ;
#333 = PERSON_AND_ORGANIZATION ( #324, #9 ) ;
#334 = ORIENTED_EDGE ( 'NONE', *, *, #223, .T. ) ;
#335 =( NAMED_UNIT ( * ) PLANE_ANGLE_UNIT ( ) SI_UNIT ( $, .RADIAN. ) );
#336 = DIRECTION ( 'NONE',  ( -3.491481338843133355E-15, 1.224646799147353207E-16, -1.000000000000000000 ) ) ;
#337 = APPROVAL_ROLE ( '' ) ;
#338 = LOCAL_TIME ( 11, 23, 8.000000000000000000, #251 ) ;
#339 = DIRECTION ( 'NONE',  ( 0.0000000000000000000, 1.000000000000000000, 0.0000000000000000000 ) ) ;
#340 = ADVANCED_FACE ( 'NONE', ( #328, #211 ), #41, .T. ) ;
#341 = PERSON_AND_ORGANIZATION ( #324, #9 ) ;
#342 = DIRECTION ( 'NONE',  ( 3.491481338843133355E-15, -1.224646799147353207E-16, 1.000000000000000000 ) ) ;
#343 = DIRECTION ( 'NONE',  ( -3.491481338843133355E-15, 1.224646799147353207E-16, -1.000000000000000000 ) ) ;
ENDSEC;
END-ISO-10303-21;
