ISO-10303-21;
HEADER;
FILE_DESCRIPTION (( 'STEP AP203' ),
    '1' );
FILE_NAME ('384653.step',
    '2022-01-11T10:23:07',
    ( '' ),
    ( '' ),
    'SwSTEP 2.0',
    'SolidWorks 2019',
    '' );
FILE_SCHEMA (( 'CONFIG_CONTROL_DESIGN' ));
ENDSEC;

DATA;
#1 = CIRCLE ( 'NONE', #133, 2.999999999999995115 ) ;
#2 = CC_DESIGN_PERSON_AND_ORGANIZATION_ASSIGNMENT ( #251, #309, ( #66 ) ) ;
#3 = DIRECTION ( 'NONE',  ( -3.491481338843133355E-15, 1.224646799147353207E-16, -1.000000000000000000 ) ) ;
#4 = DIRECTION ( 'NONE',  ( -3.491481338843133355E-15, 1.224646799147353207E-16, -1.000000000000000000 ) ) ;
#5 = FACE_OUTER_BOUND ( 'NONE', #71, .T. ) ;
#6 = DIRECTION ( 'NONE',  ( 4.275831445896958607E-31, 1.000000000000000000, 1.224646799147353454E-16 ) ) ;
#7 = CIRCLE ( 'NONE', #26, 2.949999999999999734 ) ;
#8 = ADVANCED_FACE ( 'NONE', ( #335, #226 ), #327, .T. ) ;
#9 = VERTEX_POINT ( 'NONE', #220 ) ;
#10 = ORIENTED_EDGE ( 'NONE', *, *, #241, .F. ) ;
#11 = CC_DESIGN_DATE_AND_TIME_ASSIGNMENT ( #231, #233, ( #128 ) ) ;
#12 = AXIS2_PLACEMENT_3D ( 'NONE', #240, #145, #6 ) ;
#13 = ORIENTED_EDGE ( 'NONE', *, *, #52, .T. ) ;
#14 = CARTESIAN_POINT ( 'NONE',  ( 1.920314736363723472E-13, -6.735557395310442615E-15, 55.00000000000000000 ) ) ;
#15 = ORIENTED_EDGE ( 'NONE', *, *, #140, .F. ) ;
#16 = DIRECTION ( 'NONE',  ( -3.491481338843133355E-15, 1.224646799147353207E-16, -1.000000000000000000 ) ) ;
#17 = AXIS2_PLACEMENT_3D ( 'NONE', #340, #320, #192 ) ;
#18 = LOCAL_TIME ( 11, 23, 7.000000000000000000, #181 ) ;
#19 = DIRECTION ( 'NONE',  ( -3.491481338843133355E-15, 1.224646799147353207E-16, -1.000000000000000000 ) ) ;
#20 = PERSON_AND_ORGANIZATION_ROLE ( 'design_owner' ) ;
#21 = APPLICATION_PROTOCOL_DEFINITION ( 'international standard', 'config_control_design', 1994, #101 ) ;
#22 = FACE_OUTER_BOUND ( 'NONE', #283, .T. ) ;
#23 = ADVANCED_FACE ( 'NONE', ( #69, #94 ), #287, .F. ) ;
#24 = PRODUCT ( '384653', '384653', '', ( #100 ) ) ;
#25 = CALENDAR_DATE ( 2022, 11, 1 ) ;
#26 = AXIS2_PLACEMENT_3D ( 'NONE', #51, #297, #263 ) ;
#27 = CARTESIAN_POINT ( 'NONE',  ( 1.920314736363723472E-13, 1.799711739194220919E-32, 55.00000000000000000 ) ) ;
#28 = CARTESIAN_POINT ( 'NONE',  ( 1.815570296198429345E-14, 2.120583842391325777E-32, 5.200000000000000178 ) ) ;
#29 = APPROVAL ( #212, 'UNSPECIFIED' ) ;
#30 = DIRECTION ( 'NONE',  ( -4.275831445896958607E-31, -1.000000000000000000, -1.224646799147353207E-16 ) ) ;
#31 = AXIS2_PLACEMENT_3D ( 'NONE', #314, #239, #141 ) ;
#32 = DIRECTION ( 'NONE',  ( 0.0000000000000000000, 1.000000000000000000, 0.0000000000000000000 ) ) ;
#33 = VERTEX_POINT ( 'NONE', #90 ) ;
#34 = AXIS2_PLACEMENT_3D ( 'NONE', #266, #238, #337 ) ;
#35 = CIRCLE ( 'NONE', #88, 1.202897996607957820 ) ;
#36 = ORIENTED_EDGE ( 'NONE', *, *, #250, .T. ) ;
#37 = ADVANCED_FACE ( 'NONE', ( #175, #313 ), #281, .T. ) ;
#38 = ORIENTED_EDGE ( 'NONE', *, *, #140, .T. ) ;
#39 = FACE_OUTER_BOUND ( 'NONE', #230, .T. ) ;
#40 = ORIENTED_EDGE ( 'NONE', *, *, #92, .T. ) ;
#41 =( NAMED_UNIT ( * ) SI_UNIT ( $, .STERADIAN. ) SOLID_ANGLE_UNIT ( ) );
#42 = ORIENTED_EDGE ( 'NONE', *, *, #59, .T. ) ;
#43 = CARTESIAN_POINT ( 'NONE',  ( 0.0000000000000000000, 0.0000000000000000000, 0.0000000000000000000 ) ) ;
#44 = ORIENTED_EDGE ( 'NONE', *, *, #194, .F. ) ;
#45 = COORDINATED_UNIVERSAL_TIME_OFFSET ( 1, 0, .AHEAD. ) ;
#46 = DIRECTION ( 'NONE',  ( 3.491481338843133355E-15, -1.224646799147353207E-16, 1.000000000000000000 ) ) ;
#47 = CARTESIAN_POINT ( 'NONE',  ( 0.0000000000000000000, 0.0000000000000000000, 0.0000000000000000000 ) ) ;
#48 = CALENDAR_DATE ( 2022, 11, 1 ) ;
#49 = FACE_OUTER_BOUND ( 'NONE', #180, .T. ) ;
#50 = CIRCLE ( 'NONE', #318, 2.400000000000003020 ) ;
#51 = CARTESIAN_POINT ( 'NONE',  ( 3.992032287124474883E-14, -1.400216437685369052E-15, 11.43363489505916597 ) ) ;
#52 = EDGE_CURVE ( 'NONE', #33, #33, #253, .T. ) ;
#53 = DIRECTION ( 'NONE',  ( 4.275831445896958607E-31, 1.000000000000000000, 1.224646799147353207E-16 ) ) ;
#54 = CARTESIAN_POINT ( 'NONE',  ( 4.957903501157248733E-14, -1.738998454789241549E-15, 14.19999999999999929 ) ) ;
#55 = AXIS2_PLACEMENT_3D ( 'NONE', #151, #19, #310 ) ;
#56 = CC_DESIGN_APPROVAL ( #245, ( #66 ) ) ;
#57 = CARTESIAN_POINT ( 'NONE',  ( 1.326762908760390517E-14, -4.336808689942017736E-16, 3.799999999999999378 ) ) ;
#58 = EDGE_LOOP ( 'NONE', ( #36 ) ) ;
#59 = EDGE_CURVE ( 'NONE', #300, #300, #273, .T. ) ;
#60 = CARTESIAN_POINT ( 'NONE',  ( 1.471946866483887001E-14, 0.9937047985323825827, 4.215823381635490641 ) ) ;
#61 = EDGE_LOOP ( 'NONE', ( #247 ) ) ;
#62 = AXIS2_PLACEMENT_3D ( 'NONE', #138, #80, #110 ) ;
#63 = ORIENTED_EDGE ( 'NONE', *, *, #311, .T. ) ;
#64 = FACE_BOUND ( 'NONE', #61, .T. ) ;
#65 = CARTESIAN_POINT ( 'NONE',  ( 4.957903501157248733E-14, 4.461785353419020636E-32, 14.19999999999999929 ) ) ;
#66 = PRODUCT_DEFINITION_FORMATION_WITH_SPECIFIED_SOURCE ( 'ANY', '', #24, .NOT_KNOWN. ) ;
#67 =( NAMED_UNIT ( * ) PLANE_ANGLE_UNIT ( ) SI_UNIT ( $, .RADIAN. ) );
#68 = CC_DESIGN_PERSON_AND_ORGANIZATION_ASSIGNMENT ( #336, #103, ( #66 ) ) ;
#69 = FACE_BOUND ( 'NONE', #123, .T. ) ;
#70 = PERSON_AND_ORGANIZATION ( #77, #126 ) ;
#71 = EDGE_LOOP ( 'NONE', ( #10 ) ) ;
#72 = APPROVAL_ROLE ( '' ) ;
#73 = EDGE_LOOP ( 'NONE', ( #15 ) ) ;
#74 = ADVANCED_FACE ( 'NONE', ( #162, #267 ), #293, .T. ) ;
#75 = PLANE ( 'NONE',  #17 ) ;
#76 = APPROVAL_DATE_TIME ( #288, #245 ) ;
#77 = PERSON ( 'UNSPECIFIED', 'UNSPECIFIED', 'UNSPECIFIED', ('UNSPECIFIED'), ('UNSPECIFIED'), ('UNSPECIFIED') ) ;
#78 = DIRECTION ( 'NONE',  ( 0.0000000000000000000, 1.000000000000000000, 0.0000000000000000000 ) ) ;
#79 = CALENDAR_DATE ( 2022, 11, 1 ) ;
#80 = DIRECTION ( 'NONE',  ( -3.491481338843133355E-15, 1.224646799147353207E-16, -1.000000000000000000 ) ) ;
#81 = APPLICATION_CONTEXT ( 'configuration controlled 3d designs of mechanical parts and assemblies' ) ;
#82 = AXIS2_PLACEMENT_3D ( 'NONE', #155, #255, #228 ) ;
#83 = LOCAL_TIME ( 11, 23, 7.000000000000000000, #130 ) ;
#84 = DIRECTION ( 'NONE',  ( 0.0000000000000000000, 1.000000000000000000, 0.0000000000000000000 ) ) ;
#85 = CARTESIAN_POINT ( 'NONE',  ( 1.012529588264508515E-14, 7.123858967643818163E-33, 2.899999999999999911 ) ) ;
#86 = CARTESIAN_POINT ( 'NONE',  ( 1.899365848330664293E-13, 2.999999999999995559, 54.39999999999999858 ) ) ;
#87 = CIRCLE ( 'NONE', #124, 0.9499999999999999556 ) ;
#88 = AXIS2_PLACEMENT_3D ( 'NONE', #322, #142, #278 ) ;
#89 = CARTESIAN_POINT ( 'NONE',  ( 1.326762908760390675E-14, 0.9499999999999995115, 3.799999999999999822 ) ) ;
#90 = CARTESIAN_POINT ( 'NONE',  ( 1.815570296198429345E-14, 1.624999999999999334, 5.200000000000000178 ) ) ;
#91 = VERTEX_POINT ( 'NONE', #60 ) ;
#92 = EDGE_CURVE ( 'NONE', #114, #114, #7, .T. ) ;
#93 = EDGE_LOOP ( 'NONE', ( #304 ) ) ;
#94 = FACE_OUTER_BOUND ( 'NONE', #174, .T. ) ;
#95 = VERTEX_POINT ( 'NONE', #326 ) ;
#96 = AXIS2_PLACEMENT_3D ( 'NONE', #28, #342, #289 ) ;
#97 = EDGE_LOOP ( 'NONE', ( #38 ) ) ;
#98 = APPROVAL_STATUS ( 'not_yet_approved' ) ;
#99 = ORIENTED_EDGE ( 'NONE', *, *, #221, .F. ) ;
#100 = MECHANICAL_CONTEXT ( 'NONE', #81, 'mechanical' ) ;
#101 = APPLICATION_CONTEXT ( 'configuration controlled 3d designs of mechanical parts and assemblies' ) ;
#102 = DIRECTION ( 'NONE',  ( 0.0000000000000000000, 1.000000000000000000, 0.0000000000000000000 ) ) ;
#103 = PERSON_AND_ORGANIZATION_ROLE ( 'creator' ) ;
#104 = FACE_OUTER_BOUND ( 'NONE', #150, .T. ) ;
#105 = CLOSED_SHELL ( 'NONE', ( #224, #8, #275, #152, #109, #257, #170, #23, #332, #74, #147 ) ) ;
#106 = PERSON_AND_ORGANIZATION ( #77, #126 ) ;
#107 = CARTESIAN_POINT ( 'NONE',  ( 4.957903501157248733E-14, -1.738998454789241549E-15, 14.19999999999999929 ) ) ;
#108 = DIRECTION ( 'NONE',  ( 4.275831445896958607E-31, 1.000000000000000000, 1.224646799147353207E-16 ) ) ;
#109 = ADVANCED_FACE ( 'NONE', ( #214, #104 ), #291, .F. ) ;
#110 = DIRECTION ( 'NONE',  ( 0.0000000000000000000, 1.000000000000000000, 0.0000000000000000000 ) ) ;
#111 = FACE_OUTER_BOUND ( 'NONE', #333, .T. ) ;
#112 = DIRECTION ( 'NONE',  ( 0.0000000000000000000, -1.000000000000000000, 0.0000000000000000000 ) ) ;
#113 = CC_DESIGN_PERSON_AND_ORGANIZATION_ASSIGNMENT ( #338, #20, ( #24 ) ) ;
#114 = VERTEX_POINT ( 'NONE', #280 ) ;
#115 = SECURITY_CLASSIFICATION ( '', '', #183 ) ;
#116 = DIRECTION ( 'NONE',  ( 3.491481338843133355E-15, -1.224646799147353207E-16, 1.000000000000000000 ) ) ;
#117 = CARTESIAN_POINT ( 'NONE',  ( 1.815570296198429345E-14, 1.202897996607957154, 5.200000000000000178 ) ) ;
#118 = ORIENTED_EDGE ( 'NONE', *, *, #194, .T. ) ;
#119 = AXIS2_PLACEMENT_3D ( 'NONE', #43, #292, #127 ) ;
#120 = ORIENTED_EDGE ( 'NONE', *, *, #250, .F. ) ;
#121 = EDGE_LOOP ( 'NONE', ( #271 ) ) ;
#122 = DIRECTION ( 'NONE',  ( -3.491481338843133355E-15, 1.224646799147353207E-16, -1.000000000000000000 ) ) ;
#123 = EDGE_LOOP ( 'NONE', ( #120 ) ) ;
#124 = AXIS2_PLACEMENT_3D ( 'NONE', #161, #265, #32 ) ;
#125 = DIRECTION ( 'NONE',  ( -4.275831445896958607E-31, -1.000000000000000000, -1.224646799147353207E-16 ) ) ;
#126 = ORGANIZATION ( 'UNSPECIFIED', 'UNSPECIFIED', '' ) ;
#127 = DIRECTION ( 'NONE',  ( 1.000000000000000000, 0.0000000000000000000, 0.0000000000000000000 ) ) ;
#128 = PRODUCT_DEFINITION ( 'UNKNOWN', '', #66, #295 ) ;
#129 = CARTESIAN_POINT ( 'NONE',  ( 1.012529588264508515E-14, -3.551475717527323832E-16, 2.899999999999999911 ) ) ;
#130 = COORDINATED_UNIVERSAL_TIME_OFFSET ( 1, 0, .AHEAD. ) ;
#131 = EDGE_LOOP ( 'NONE', ( #118 ) ) ;
#132 = CYLINDRICAL_SURFACE ( 'NONE', #139, 2.950000000000000178 ) ;
#133 = AXIS2_PLACEMENT_3D ( 'NONE', #107, #213, #78 ) ;
#134 = DATE_AND_TIME ( #262, #274 ) ;
#135 = FACE_OUTER_BOUND ( 'NONE', #58, .T. ) ;
#136 = CC_DESIGN_PERSON_AND_ORGANIZATION_ASSIGNMENT ( #70, #176, ( #128 ) ) ;
#137 = PLANE ( 'NONE',  #34 ) ;
#138 = CARTESIAN_POINT ( 'NONE',  ( 1.899365848330664293E-13, -6.662078587361600895E-15, 54.39999999999999858 ) ) ;
#139 = AXIS2_PLACEMENT_3D ( 'NONE', #47, #182, #108 ) ;
#140 = EDGE_CURVE ( 'NONE', #149, #149, #193, .T. ) ;
#141 = DIRECTION ( 'NONE',  ( 0.0000000000000000000, 1.000000000000000000, 0.0000000000000000000 ) ) ;
#142 = DIRECTION ( 'NONE',  ( -3.491481338843133355E-15, 1.224646799147353207E-16, -1.000000000000000000 ) ) ;
#143 = MANIFOLD_SOLID_BREP ( 'Corps-Déplacer/Copier1[2]', #229 ) ;
#144 = AXIS2_PLACEMENT_3D ( 'NONE', #27, #3, #53 ) ;
#145 = DIRECTION ( 'NONE',  ( -3.491481338843133355E-15, 1.224646799147353207E-16, -1.000000000000000000 ) ) ;
#146 = CONICAL_SURFACE ( 'NONE', #189, 2.949999999999999734, 0.2094395102393125652 ) ;
#147 = ADVANCED_FACE ( 'NONE', ( #111 ), #316, .F. ) ;
#148 = ORIENTED_EDGE ( 'NONE', *, *, #269, .T. ) ;
#149 = VERTEX_POINT ( 'NONE', #195 ) ;
#150 = EDGE_LOOP ( 'NONE', ( #13 ) ) ;
#151 = CARTESIAN_POINT ( 'NONE',  ( 0.0000000000000000000, 0.0000000000000000000, 0.0000000000000000000 ) ) ;
#152 = ADVANCED_FACE ( 'NONE', ( #343, #49 ), #330, .T. ) ;
#153 = COORDINATED_UNIVERSAL_TIME_OFFSET ( 1, 0, .AHEAD. ) ;
#154 = AXIS2_PLACEMENT_3D ( 'NONE', #276, #16, #102 ) ;
#155 = CARTESIAN_POINT ( 'NONE',  ( 0.0000000000000000000, 0.0000000000000000000, 0.0000000000000000000 ) ) ;
#156 = COORDINATED_UNIVERSAL_TIME_OFFSET ( 1, 0, .AHEAD. ) ;
#157 = DIRECTION ( 'NONE',  ( 0.0000000000000000000, 1.000000000000000000, 0.0000000000000000000 ) ) ;
#158 = DIRECTION ( 'NONE',  ( 3.491481338843133355E-15, -1.224646799147353207E-16, 1.000000000000000000 ) ) ;
#159 = APPROVAL_DATE_TIME ( #256, #163 ) ;
#160 = CARTESIAN_POINT ( 'NONE',  ( 1.815570296198429345E-14, -6.368163355566236381E-16, 5.200000000000000178 ) ) ;
#161 = CARTESIAN_POINT ( 'NONE',  ( 1.326762908760390675E-14, -4.653657836759942730E-16, 3.799999999999999822 ) ) ;
#162 = FACE_OUTER_BOUND ( 'NONE', #93, .T. ) ;
#163 = APPROVAL ( #205, 'UNSPECIFIED' ) ;
#164 = DIRECTION ( 'NONE',  ( 0.0000000000000000000, -1.000000000000000000, 0.0000000000000000000 ) ) ;
#165 = DIRECTION ( 'NONE',  ( 4.329478505297483514E-31, 1.000000000000000000, 1.224646799147353207E-16 ) ) ;
#166 = EDGE_LOOP ( 'NONE', ( #301 ) ) ;
#167 = VERTEX_POINT ( 'NONE', #321 ) ;
#168 = VERTEX_POINT ( 'NONE', #86 ) ;
#169 = CIRCLE ( 'NONE', #31, 0.9937047985323830268 ) ;
#170 = ADVANCED_FACE ( 'NONE', ( #22, #135 ), #132, .T. ) ;
#171 = ORIENTED_EDGE ( 'NONE', *, *, #191, .T. ) ;
#172 = CARTESIAN_POINT ( 'NONE',  ( 3.992032287124474883E-14, -1.400216437685369052E-15, 11.43363489505916597 ) ) ;
#173 = CIRCLE ( 'NONE', #323, 2.950000000000000178 ) ;
#174 = EDGE_LOOP ( 'NONE', ( #329 ) ) ;
#175 = FACE_OUTER_BOUND ( 'NONE', #73, .T. ) ;
#176 = PERSON_AND_ORGANIZATION_ROLE ( 'creator' ) ;
#177 = EDGE_LOOP ( 'NONE', ( #63 ) ) ;
#178 = PERSON_AND_ORGANIZATION ( #77, #126 ) ;
#179 = AXIS2_PLACEMENT_3D ( 'NONE', #85, #319, #30 ) ;
#180 = EDGE_LOOP ( 'NONE', ( #148 ) ) ;
#181 = COORDINATED_UNIVERSAL_TIME_OFFSET ( 1, 0, .AHEAD. ) ;
#182 = DIRECTION ( 'NONE',  ( -3.491481338843133355E-15, 1.224646799147353207E-16, -1.000000000000000000 ) ) ;
#183 = SECURITY_CLASSIFICATION_LEVEL ( 'unclassified' ) ;
#184 = ADVANCED_FACE ( 'NONE', ( #317 ), #137, .F. ) ;
#185 = DIRECTION ( 'NONE',  ( -3.491481338843133355E-15, 1.224646799147353207E-16, -1.000000000000000000 ) ) ;
#186 = ADVANCED_BREP_SHAPE_REPRESENTATION ( '384653', ( #252, #143, #119 ), #243 ) ;
#187 = CARTESIAN_POINT ( 'NONE',  ( 1.012529588264508515E-14, -3.551475717527323832E-16, 2.899999999999999911 ) ) ;
#188 = AXIS2_PLACEMENT_3D ( 'NONE', #160, #158, #164 ) ;
#189 = AXIS2_PLACEMENT_3D ( 'NONE', #172, #116, #112 ) ;
#190 = DIRECTION ( 'NONE',  ( 4.275831445896958607E-31, 1.000000000000000000, 1.224646799147353454E-16 ) ) ;
#191 = EDGE_CURVE ( 'NONE', #168, #168, #268, .T. ) ;
#192 = DIRECTION ( 'NONE',  ( -4.275831445896958607E-31, -1.000000000000000000, -1.224646799147353207E-16 ) ) ;
#193 = CIRCLE ( 'NONE', #203, 0.9499999999999995115 ) ;
#194 = EDGE_CURVE ( 'NONE', #95, #95, #285, .T. ) ;
#195 = CARTESIAN_POINT ( 'NONE',  ( 2.137183397710479182E-32, 0.9499999999999995115, 6.121136532892404794E-18 ) ) ;
#196 = VERTEX_POINT ( 'NONE', #117 ) ;
#197 = AXIS2_PLACEMENT_3D ( 'NONE', #187, #294, #84 ) ;
#198 = APPROVAL_PERSON_ORGANIZATION ( #209, #245, #341 ) ;
#199 = EDGE_CURVE ( 'NONE', #219, #219, #87, .T. ) ;
#200 = EDGE_LOOP ( 'NONE', ( #306 ) ) ;
#201 = EDGE_LOOP ( 'NONE', ( #99 ) ) ;
#202 = VERTEX_POINT ( 'NONE', #302 ) ;
#203 = AXIS2_PLACEMENT_3D ( 'NONE', #261, #210, #190 ) ;
#204 = EDGE_LOOP ( 'NONE', ( #234 ) ) ;
#205 = APPROVAL_STATUS ( 'not_yet_approved' ) ;
#206 = EDGE_LOOP ( 'NONE', ( #171 ) ) ;
#207 = DATE_AND_TIME ( #25, #264 ) ;
#208 = DIRECTION ( 'NONE',  ( -3.491481338843133355E-15, 1.224646799147353207E-16, -1.000000000000000000 ) ) ;
#209 = PERSON_AND_ORGANIZATION ( #77, #126 ) ;
#210 = DIRECTION ( 'NONE',  ( -3.491481338843133355E-15, 1.224646799147353207E-16, -1.000000000000000000 ) ) ;
#211 = APPROVAL_PERSON_ORGANIZATION ( #282, #163, #72 ) ;
#212 = APPROVAL_STATUS ( 'not_yet_approved' ) ;
#213 = DIRECTION ( 'NONE',  ( -3.491481338843133355E-15, 1.224646799147353207E-16, -1.000000000000000000 ) ) ;
#214 = FACE_BOUND ( 'NONE', #166, .T. ) ;
#215 = UNCERTAINTY_MEASURE_WITH_UNIT (LENGTH_MEASURE( 1.000000000000000082E-05 ), #248, 'distance_accuracy_value', 'NONE');
#216 = ADVANCED_FACE ( 'NONE', ( #235 ), #217, .T. ) ;
#217 = PLANE ( 'NONE',  #179 ) ;
#218 = FACE_OUTER_BOUND ( 'NONE', #279, .T. ) ;
#219 = VERTEX_POINT ( 'NONE', #89 ) ;
#220 = CARTESIAN_POINT ( 'NONE',  ( 4.957903501157248733E-14, 2.999999999999993339, 14.19999999999999929 ) ) ;
#221 = EDGE_CURVE ( 'NONE', #91, #91, #169, .T. ) ;
#222 = FACE_OUTER_BOUND ( 'NONE', #258, .T. ) ;
#223 = DIRECTION ( 'NONE',  ( -3.491481338843133355E-15, 1.224646799147353207E-16, -1.000000000000000000 ) ) ;
#224 = ADVANCED_FACE ( 'NONE', ( #218 ), #75, .F. ) ;
#225 = AXIS2_PLACEMENT_3D ( 'NONE', #65, #46, #125 ) ;
#226 = FACE_OUTER_BOUND ( 'NONE', #200, .T. ) ;
#227 = CARTESIAN_POINT ( 'NONE',  ( 1.012529588264508515E-14, 0.9499999999999995115, 2.899999999999999911 ) ) ;
#228 = DIRECTION ( 'NONE',  ( 4.275831445896958607E-31, 1.000000000000000000, 1.224646799147353207E-16 ) ) ;
#229 = CLOSED_SHELL ( 'NONE', ( #184, #37, #216 ) ) ;
#230 = EDGE_LOOP ( 'NONE', ( #303 ) ) ;
#231 = DATE_AND_TIME ( #260, #83 ) ;
#232 = EDGE_LOOP ( 'NONE', ( #44 ) ) ;
#233 = DATE_TIME_ROLE ( 'creation_date' ) ;
#234 = ORIENTED_EDGE ( 'NONE', *, *, #199, .F. ) ;
#235 = FACE_OUTER_BOUND ( 'NONE', #232, .T. ) ;
#236 = SHAPE_DEFINITION_REPRESENTATION ( #259, #186 ) ;
#237 = DIRECTION ( 'NONE',  ( 0.0000000000000000000, 1.000000000000000000, 0.0000000000000000000 ) ) ;
#238 = DIRECTION ( 'NONE',  ( 3.491481338843133355E-15, -1.224646799147353207E-16, 1.000000000000000000 ) ) ;
#239 = DIRECTION ( 'NONE',  ( -3.491481338843133355E-15, 1.224646799147353207E-16, -1.000000000000000000 ) ) ;
#240 = CARTESIAN_POINT ( 'NONE',  ( 0.0000000000000000000, 0.0000000000000000000, 0.0000000000000000000 ) ) ;
#241 = EDGE_CURVE ( 'NONE', #9, #9, #1, .T. ) ;
#242 = APPLICATION_PROTOCOL_DEFINITION ( 'international standard', 'config_control_design', 1994, #81 ) ;
#243 =( GEOMETRIC_REPRESENTATION_CONTEXT ( 3 ) GLOBAL_UNCERTAINTY_ASSIGNED_CONTEXT ( ( #215 ) ) GLOBAL_UNIT_ASSIGNED_CONTEXT ( ( #248, #67, #41 ) ) REPRESENTATION_CONTEXT ( 'NONE', 'WORKASPACE' ) );
#244 = CYLINDRICAL_SURFACE ( 'NONE', #12, 2.999999999999998668 ) ;
#245 = APPROVAL ( #98, 'UNSPECIFIED' ) ;
#246 = AXIS2_PLACEMENT_3D ( 'NONE', #57, #122, #165 ) ;
#247 = ORIENTED_EDGE ( 'NONE', *, *, #52, .F. ) ;
#248 =( LENGTH_UNIT ( ) NAMED_UNIT ( * ) SI_UNIT ( .MILLI., .METRE. ) );
#249 = ORIENTED_EDGE ( 'NONE', *, *, #311, .F. ) ;
#250 = EDGE_CURVE ( 'NONE', #202, #202, #173, .T. ) ;
#251 = PERSON_AND_ORGANIZATION ( #77, #126 ) ;
#252 = MANIFOLD_SOLID_BREP ( 'Corps-Déplacer/Copier1[1]', #105 ) ;
#253 = CIRCLE ( 'NONE', #154, 1.625000000000000000 ) ;
#254 = LOCAL_TIME ( 11, 23, 7.000000000000000000, #153 ) ;
#255 = DIRECTION ( 'NONE',  ( -3.491481338843133355E-15, 1.224646799147353207E-16, -1.000000000000000000 ) ) ;
#256 = DATE_AND_TIME ( #48, #254 ) ;
#257 = ADVANCED_FACE ( 'NONE', ( #64, #222 ), #146, .T. ) ;
#258 = EDGE_LOOP ( 'NONE', ( #40 ) ) ;
#259 = PRODUCT_DEFINITION_SHAPE ( 'NONE', 'NONE',  #128 ) ;
#260 = CALENDAR_DATE ( 2022, 11, 1 ) ;
#261 = CARTESIAN_POINT ( 'NONE',  ( -3.848321533831061110E-31, 1.349809490907258218E-32, -1.102203093861061018E-16 ) ) ;
#262 = CALENDAR_DATE ( 2022, 11, 1 ) ;
#263 = DIRECTION ( 'NONE',  ( 0.0000000000000000000, 1.000000000000000000, 0.0000000000000000000 ) ) ;
#264 = LOCAL_TIME ( 11, 23, 7.000000000000000000, #45 ) ;
#265 = DIRECTION ( 'NONE',  ( -3.491481338843133355E-15, 1.224646799147353207E-16, -1.000000000000000000 ) ) ;
#266 = CARTESIAN_POINT ( 'NONE',  ( -1.924160766915530555E-31, 6.749047454536291089E-33, -5.511015469305305091E-17 ) ) ;
#267 = FACE_BOUND ( 'NONE', #177, .T. ) ;
#268 = CIRCLE ( 'NONE', #62, 3.000000000000002220 ) ;
#269 = EDGE_CURVE ( 'NONE', #196, #196, #35, .T. ) ;
#270 = DIRECTION ( 'NONE',  ( 0.0000000000000000000, 1.000000000000000000, 0.0000000000000000000 ) ) ;
#271 = ORIENTED_EDGE ( 'NONE', *, *, #59, .F. ) ;
#272 = FACE_OUTER_BOUND ( 'NONE', #206, .T. ) ;
#273 = CIRCLE ( 'NONE', #277, 0.9499999999999998446 ) ;
#274 = LOCAL_TIME ( 11, 23, 7.000000000000000000, #156 ) ;
#275 = ADVANCED_FACE ( 'NONE', ( #39, #325 ), #324, .F. ) ;
#276 = CARTESIAN_POINT ( 'NONE',  ( 1.815570296198429345E-14, -6.368163355566236381E-16, 5.200000000000000178 ) ) ;
#277 = AXIS2_PLACEMENT_3D ( 'NONE', #129, #208, #157 ) ;
#278 = DIRECTION ( 'NONE',  ( 0.0000000000000000000, 1.000000000000000000, 0.0000000000000000000 ) ) ;
#279 = EDGE_LOOP ( 'NONE', ( #42 ) ) ;
#280 = CARTESIAN_POINT ( 'NONE',  ( 3.992032287124474883E-14, 2.949999999999998845, 11.43363489505916597 ) ) ;
#281 = CYLINDRICAL_SURFACE ( 'NONE', #55, 0.9499999999999996225 ) ;
#282 = PERSON_AND_ORGANIZATION ( #77, #126 ) ;
#283 = EDGE_LOOP ( 'NONE', ( #308 ) ) ;
#284 = CC_DESIGN_PERSON_AND_ORGANIZATION_ASSIGNMENT ( #178, #290, ( #115 ) ) ;
#285 = CIRCLE ( 'NONE', #197, 0.9499999999999998446 ) ;
#286 = APPROVAL_PERSON_ORGANIZATION ( #106, #29, #334 ) ;
#287 = PLANE ( 'NONE',  #225 ) ;
#288 = DATE_AND_TIME ( #79, #18 ) ;
#289 = DIRECTION ( 'NONE',  ( -4.275831445896958607E-31, -1.000000000000000000, -1.224646799147353207E-16 ) ) ;
#290 = PERSON_AND_ORGANIZATION_ROLE ( 'classification_officer' ) ;
#291 = PLANE ( 'NONE',  #96 ) ;
#292 = DIRECTION ( 'NONE',  ( 0.0000000000000000000, 0.0000000000000000000, 1.000000000000000000 ) ) ;
#293 = CONICAL_SURFACE ( 'NONE', #339, 2.400000000000003020, 0.7853981633974450594 ) ;
#294 = DIRECTION ( 'NONE',  ( -3.491481338843133355E-15, 1.224646799147353207E-16, -1.000000000000000000 ) ) ;
#295 = DESIGN_CONTEXT ( 'detailed design', #101, 'design' ) ;
#296 = CARTESIAN_POINT ( 'NONE',  ( 1.920314736363723472E-13, -6.735557395310442615E-15, 55.00000000000000000 ) ) ;
#297 = DIRECTION ( 'NONE',  ( -3.491481338843133355E-15, 1.224646799147353207E-16, -1.000000000000000000 ) ) ;
#298 = CC_DESIGN_DATE_AND_TIME_ASSIGNMENT ( #134, #312, ( #115 ) ) ;
#299 = CC_DESIGN_APPROVAL ( #29, ( #128 ) ) ;
#300 = VERTEX_POINT ( 'NONE', #227 ) ;
#301 = ORIENTED_EDGE ( 'NONE', *, *, #269, .F. ) ;
#302 = CARTESIAN_POINT ( 'NONE',  ( 4.957903501157248733E-14, 2.949999999999998845, 14.19999999999999929 ) ) ;
#303 = ORIENTED_EDGE ( 'NONE', *, *, #221, .T. ) ;
#304 = ORIENTED_EDGE ( 'NONE', *, *, #191, .F. ) ;
#305 = PRODUCT_RELATED_PRODUCT_CATEGORY ( 'detail', '', ( #24 ) ) ;
#306 = ORIENTED_EDGE ( 'NONE', *, *, #199, .T. ) ;
#307 = CC_DESIGN_SECURITY_CLASSIFICATION ( #115, ( #66 ) ) ;
#308 = ORIENTED_EDGE ( 'NONE', *, *, #92, .F. ) ;
#309 = PERSON_AND_ORGANIZATION_ROLE ( 'design_supplier' ) ;
#310 = DIRECTION ( 'NONE',  ( 4.275831445896958607E-31, 1.000000000000000000, 1.224646799147353207E-16 ) ) ;
#311 = EDGE_CURVE ( 'NONE', #167, #167, #50, .T. ) ;
#312 = DATE_TIME_ROLE ( 'classification_date' ) ;
#313 = FACE_OUTER_BOUND ( 'NONE', #131, .T. ) ;
#314 = CARTESIAN_POINT ( 'NONE',  ( 1.471946866483887001E-14, -5.162894610090474184E-16, 4.215823381635490641 ) ) ;
#315 = APPROVAL_DATE_TIME ( #207, #29 ) ;
#316 = PLANE ( 'NONE',  #144 ) ;
#317 = FACE_OUTER_BOUND ( 'NONE', #97, .T. ) ;
#318 = AXIS2_PLACEMENT_3D ( 'NONE', #14, #223, #270 ) ;
#319 = DIRECTION ( 'NONE',  ( 3.491481338843133355E-15, -1.224646799147353207E-16, 1.000000000000000000 ) ) ;
#320 = DIRECTION ( 'NONE',  ( 3.491481338843133355E-15, -1.224646799147353207E-16, 1.000000000000000000 ) ) ;
#321 = CARTESIAN_POINT ( 'NONE',  ( 1.920314736363723472E-13, 2.399999999999995914, 55.00000000000000000 ) ) ;
#322 = CARTESIAN_POINT ( 'NONE',  ( 1.815570296198429345E-14, -6.368163355566236381E-16, 5.200000000000000178 ) ) ;
#323 = AXIS2_PLACEMENT_3D ( 'NONE', #54, #4, #328 ) ;
#324 = TOROIDAL_SURFACE ( 'NONE', #246, 2.949999999999999734, 2.000000000000000000 ) ;
#325 = FACE_OUTER_BOUND ( 'NONE', #204, .T. ) ;
#326 = CARTESIAN_POINT ( 'NONE',  ( 1.012529588264508515E-14, 0.9499999999999995115, 2.899999999999999911 ) ) ;
#327 = CYLINDRICAL_SURFACE ( 'NONE', #82, 0.9499999999999998446 ) ;
#328 = DIRECTION ( 'NONE',  ( 0.0000000000000000000, 1.000000000000000000, 0.0000000000000000000 ) ) ;
#329 = ORIENTED_EDGE ( 'NONE', *, *, #241, .T. ) ;
#330 = CONICAL_SURFACE ( 'NONE', #188, 1.202897996607957820, 0.2094395102393053487 ) ;
#331 = CC_DESIGN_APPROVAL ( #163, ( #115 ) ) ;
#332 = ADVANCED_FACE ( 'NONE', ( #5, #272 ), #244, .T. ) ;
#333 = EDGE_LOOP ( 'NONE', ( #249 ) ) ;
#334 = APPROVAL_ROLE ( '' ) ;
#335 = FACE_OUTER_BOUND ( 'NONE', #121, .T. ) ;
#336 = PERSON_AND_ORGANIZATION ( #77, #126 ) ;
#337 = DIRECTION ( 'NONE',  ( -4.275831445896958607E-31, -1.000000000000000000, -1.224646799147353207E-16 ) ) ;
#338 = PERSON_AND_ORGANIZATION ( #77, #126 ) ;
#339 = AXIS2_PLACEMENT_3D ( 'NONE', #296, #185, #237 ) ;
#340 = CARTESIAN_POINT ( 'NONE',  ( 1.012529588264508515E-14, 7.123858967643818163E-33, 2.899999999999999911 ) ) ;
#341 = APPROVAL_ROLE ( '' ) ;
#342 = DIRECTION ( 'NONE',  ( 3.491481338843133355E-15, -1.224646799147353207E-16, 1.000000000000000000 ) ) ;
#343 = FACE_BOUND ( 'NONE', #201, .T. ) ;
ENDSEC;
END-ISO-10303-21;
