ISO-10303-21;
HEADER;
FILE_DESCRIPTION (( 'STEP AP203' ),
    '1' );
FILE_NAME ('384651.step',
    '2022-01-11T10:23:07',
    ( '' ),
    ( '' ),
    'SwSTEP 2.0',
    'SolidWorks 2019',
    '' );
FILE_SCHEMA (( 'CONFIG_CONTROL_DESIGN' ));
ENDSEC;

DATA;
#1 = CONICAL_SURFACE ( 'NONE', #217, 3.000000000000002220, 0.7853981633974450594 ) ;
#2 = EDGE_LOOP ( 'NONE', ( #111 ) ) ;
#3 = DIRECTION ( 'NONE',  ( -4.333626879254185919E-31, -1.000000000000000000, -1.225678153645275576E-16 ) ) ;
#4 = LOCAL_TIME ( 11, 23, 7.000000000000000000, #18 ) ;
#5 = DIRECTION ( 'NONE',  ( 3.491481338843133355E-15, -1.225678153645275576E-16, 1.000000000000000000 ) ) ;
#6 = ORIENTED_EDGE ( 'NONE', *, *, #175, .F. ) ;
#7 = FACE_OUTER_BOUND ( 'NONE', #232, .T. ) ;
#8 = ORIENTED_EDGE ( 'NONE', *, *, #100, .F. ) ;
#9 = CC_DESIGN_DATE_AND_TIME_ASSIGNMENT ( #32, #127, ( #21 ) ) ;
#10 = DIRECTION ( 'NONE',  ( 0.0000000000000000000, -1.000000000000000000, 0.0000000000000000000 ) ) ;
#11 = EDGE_LOOP ( 'NONE', ( #57 ) ) ;
#12 = AXIS2_PLACEMENT_3D ( 'NONE', #43, #141, #94 ) ;
#13 = DIRECTION ( 'NONE',  ( 0.0000000000000000000, -1.000000000000000000, 0.0000000000000000000 ) ) ;
#14 = CARTESIAN_POINT ( 'NONE',  ( 1.920314736363723472E-13, -6.735557395310442615E-15, 55.00000000000000000 ) ) ;
#15 = VERTEX_POINT ( 'NONE', #214 ) ;
#16 = EDGE_CURVE ( 'NONE', #135, #135, #149, .T. ) ;
#17 = DIRECTION ( 'NONE',  ( -3.491481338843133355E-15, 1.225678153645275576E-16, -1.000000000000000000 ) ) ;
#18 = COORDINATED_UNIVERSAL_TIME_OFFSET ( 1, 0, .AHEAD. ) ;
#19 = CARTESIAN_POINT ( 'NONE',  ( 1.899365848330664293E-13, -6.662016706091725050E-15, 54.39999999999999858 ) ) ;
#20 = VERTEX_POINT ( 'NONE', #313 ) ;
#21 = SECURITY_CLASSIFICATION ( '', '', #198 ) ;
#22 = DIRECTION ( 'NONE',  ( 0.0000000000000000000, -1.000000000000000000, 0.0000000000000000000 ) ) ;
#23 = PRODUCT_DEFINITION ( 'UNKNOWN', '', #169, #156 ) ;
#24 = DIRECTION ( 'NONE',  ( 0.0000000000000000000, 0.0000000000000000000, 1.000000000000000000 ) ) ;
#25 = PERSON_AND_ORGANIZATION_ROLE ( 'creator' ) ;
#26 = AXIS2_PLACEMENT_3D ( 'NONE', #19, #193, #148 ) ;
#27 = EDGE_CURVE ( 'NONE', #178, #178, #271, .T. ) ;
#28 = COORDINATED_UNIVERSAL_TIME_OFFSET ( 1, 0, .AHEAD. ) ;
#29 = MANIFOLD_SOLID_BREP ( 'Corps-Déplacer/Copier4[2]', #237 ) ;
#30 = CIRCLE ( 'NONE', #52, 0.8999999999999995781 ) ;
#31 = ADVANCED_FACE ( 'NONE', ( #72 ), #285, .F. ) ;
#32 = DATE_AND_TIME ( #153, #321 ) ;
#33 = DIRECTION ( 'NONE',  ( -3.491481338843133355E-15, 1.224646799147353207E-16, -1.000000000000000000 ) ) ;
#34 = FACE_BOUND ( 'NONE', #291, .T. ) ;
#35 = EDGE_LOOP ( 'NONE', ( #55 ) ) ;
#36 = AXIS2_PLACEMENT_3D ( 'NONE', #231, #280, #3 ) ;
#37 = FACE_OUTER_BOUND ( 'NONE', #86, .T. ) ;
#38 = EDGE_CURVE ( 'NONE', #105, #105, #223, .T. ) ;
#39 = FACE_OUTER_BOUND ( 'NONE', #35, .T. ) ;
#40 = ADVANCED_BREP_SHAPE_REPRESENTATION ( '384651', ( #144, #29, #197 ), #192 ) ;
#41 = EDGE_LOOP ( 'NONE', ( #207 ) ) ;
#42 = CARTESIAN_POINT ( 'NONE',  ( 0.0000000000000000000, 0.0000000000000000000, 0.0000000000000000000 ) ) ;
#43 = CARTESIAN_POINT ( 'NONE',  ( 4.957903501157248102E-14, -1.734790528437717811E-15, 14.19999999999999751 ) ) ;
#44 = CLOSED_SHELL ( 'NONE', ( #64, #208, #257, #246, #294, #150, #177, #54, #323, #78 ) ) ;
#45 = VERTEX_POINT ( 'NONE', #65 ) ;
#46 = DIRECTION ( 'NONE',  ( 3.491481338843133355E-15, -1.225678153645275576E-16, 1.000000000000000000 ) ) ;
#47 = CARTESIAN_POINT ( 'NONE',  ( 0.0000000000000000000, 0.0000000000000000000, 0.0000000000000000000 ) ) ;
#48 = CARTESIAN_POINT ( 'NONE',  ( 9.426999614876461637E-15, 6.748919021978355130E-33, 2.700000000000000178 ) ) ;
#49 = CALENDAR_DATE ( 2022, 11, 1 ) ;
#50 = CARTESIAN_POINT ( 'NONE',  ( 4.957903501157248733E-14, 2.999999999999993339, 14.19999999999999929 ) ) ;
#51 = PERSON_AND_ORGANIZATION_ROLE ( 'classification_officer' ) ;
#52 = AXIS2_PLACEMENT_3D ( 'NONE', #159, #283, #138 ) ;
#53 = LOCAL_TIME ( 11, 23, 7.000000000000000000, #247 ) ;
#54 = ADVANCED_FACE ( 'NONE', ( #284, #240 ), #1, .T. ) ;
#55 = ORIENTED_EDGE ( 'NONE', *, *, #16, .F. ) ;
#56 = CARTESIAN_POINT ( 'NONE',  ( 9.426999614876463215E-15, -3.252606517456513302E-16, 2.700000000000001066 ) ) ;
#57 = ORIENTED_EDGE ( 'NONE', *, *, #38, .T. ) ;
#58 = DIRECTION ( 'NONE',  ( -4.279432400880186472E-31, -1.000000000000000000, -1.225678153645275576E-16 ) ) ;
#59 = EDGE_CURVE ( 'NONE', #173, #173, #320, .T. ) ;
#60 = AXIS2_PLACEMENT_3D ( 'NONE', #132, #5, #63 ) ;
#61 = CYLINDRICAL_SURFACE ( 'NONE', #90, 0.8999999999999998002 ) ;
#62 = ORIENTED_EDGE ( 'NONE', *, *, #319, .F. ) ;
#63 = DIRECTION ( 'NONE',  ( 0.0000000000000000000, -1.000000000000000000, 0.0000000000000000000 ) ) ;
#64 = ADVANCED_FACE ( 'NONE', ( #187, #167 ), #172, .T. ) ;
#65 = CARTESIAN_POINT ( 'NONE',  ( 2.137183397710479182E-32, 0.8999999999999995781, 6.121136532892404794E-18 ) ) ;
#66 = DIRECTION ( 'NONE',  ( 3.491481338843133355E-15, -1.224646799147353207E-16, 1.000000000000000000 ) ) ;
#67 = APPLICATION_CONTEXT ( 'configuration controlled 3d designs of mechanical parts and assemblies' ) ;
#68 = AXIS2_PLACEMENT_3D ( 'NONE', #50, #114, #87 ) ;
#69 = VERTEX_POINT ( 'NONE', #145 ) ;
#70 = ORIENTED_EDGE ( 'NONE', *, *, #100, .T. ) ;
#71 = APPLICATION_PROTOCOL_DEFINITION ( 'international standard', 'config_control_design', 1994, #243 ) ;
#72 = FACE_OUTER_BOUND ( 'NONE', #134, .T. ) ;
#73 = APPROVAL_DATE_TIME ( #292, #265 ) ;
#74 = CC_DESIGN_PERSON_AND_ORGANIZATION_ASSIGNMENT ( #171, #191, ( #176 ) ) ;
#75 = DATE_AND_TIME ( #116, #77 ) ;
#76 = AXIS2_PLACEMENT_3D ( 'NONE', #110, #166, #85 ) ;
#77 = LOCAL_TIME ( 11, 23, 7.000000000000000000, #293 ) ;
#78 = ADVANCED_FACE ( 'NONE', ( #117 ), #317, .F. ) ;
#79 = CALENDAR_DATE ( 2022, 11, 1 ) ;
#80 = APPROVAL_STATUS ( 'not_yet_approved' ) ;
#81 = UNCERTAINTY_MEASURE_WITH_UNIT (LENGTH_MEASURE( 1.000000000000000082E-05 ), #311, 'distance_accuracy_value', 'NONE');
#82 = PERSON_AND_ORGANIZATION_ROLE ( 'design_supplier' ) ;
#83 = ORIENTED_EDGE ( 'NONE', *, *, #235, .F. ) ;
#84 = AXIS2_PLACEMENT_3D ( 'NONE', #289, #308, #259 ) ;
#85 = DIRECTION ( 'NONE',  ( 0.0000000000000000000, -1.000000000000000000, 0.0000000000000000000 ) ) ;
#86 = EDGE_LOOP ( 'NONE', ( #113 ) ) ;
#87 = DIRECTION ( 'NONE',  ( -4.279432400880186472E-31, -1.000000000000000000, -1.225678153645275576E-16 ) ) ;
#88 = ORIENTED_EDGE ( 'NONE', *, *, #175, .T. ) ;
#89 = CYLINDRICAL_SURFACE ( 'NONE', #76, 2.950000000000000178 ) ;
#90 = AXIS2_PLACEMENT_3D ( 'NONE', #42, #33, #251 ) ;
#91 = FACE_OUTER_BOUND ( 'NONE', #300, .T. ) ;
#92 = EDGE_CURVE ( 'NONE', #20, #20, #158, .T. ) ;
#93 = CARTESIAN_POINT ( 'NONE',  ( 3.989858239493480177E-14, -1.394960005570239436E-15, 11.42740817516578389 ) ) ;
#94 = DIRECTION ( 'NONE',  ( 0.0000000000000000000, -1.000000000000000000, 0.0000000000000000000 ) ) ;
#95 = DIRECTION ( 'NONE',  ( 3.491481338843133355E-15, -1.224646799147353207E-16, 1.000000000000000000 ) ) ;
#96 = CIRCLE ( 'NONE', #12, 2.999999999999995115 ) ;
#97 = DIRECTION ( 'NONE',  ( 3.491481338843133355E-15, -1.225678153645275576E-16, 1.000000000000000000 ) ) ;
#98 = APPROVAL_STATUS ( 'not_yet_approved' ) ;
#99 = DATE_AND_TIME ( #49, #4 ) ;
#100 = EDGE_CURVE ( 'NONE', #290, #290, #96, .T. ) ;
#101 = PRODUCT_DEFINITION_SHAPE ( 'NONE', 'NONE',  #23 ) ;
#102 = PERSON_AND_ORGANIZATION ( #206, #287 ) ;
#103 = AXIS2_PLACEMENT_3D ( 'NONE', #315, #241, #123 ) ;
#104 = ORIENTED_EDGE ( 'NONE', *, *, #16, .T. ) ;
#105 = VERTEX_POINT ( 'NONE', #301 ) ;
#106 = EDGE_LOOP ( 'NONE', ( #276 ) ) ;
#107 = CIRCLE ( 'NONE', #288, 0.9000000000000002442 ) ;
#108 = CARTESIAN_POINT ( 'NONE',  ( 1.256933281983527692E-14, -4.355716855737257549E-16, 3.599999999999999201 ) ) ;
#109 = EDGE_LOOP ( 'NONE', ( #274 ) ) ;
#110 = CARTESIAN_POINT ( 'NONE',  ( 1.920314736363723472E-13, -6.735557395310442615E-15, 55.00000000000000000 ) ) ;
#111 = ORIENTED_EDGE ( 'NONE', *, *, #59, .T. ) ;
#112 = FACE_OUTER_BOUND ( 'NONE', #165, .T. ) ;
#113 = ORIENTED_EDGE ( 'NONE', *, *, #59, .F. ) ;
#114 = DIRECTION ( 'NONE',  ( 3.491481338843133355E-15, -1.225678153645275576E-16, 1.000000000000000000 ) ) ;
#115 = DIRECTION ( 'NONE',  ( -4.275831445896958607E-31, -1.000000000000000000, -1.224646799147353207E-16 ) ) ;
#116 = CALENDAR_DATE ( 2022, 11, 1 ) ;
#117 = FACE_OUTER_BOUND ( 'NONE', #230, .T. ) ;
#118 = CARTESIAN_POINT ( 'NONE',  ( 1.361677722148822166E-14, -1.350000000000000977, 3.900000000000000799 ) ) ;
#119 = ORIENTED_EDGE ( 'NONE', *, *, #200, .F. ) ;
#120 = AXIS2_PLACEMENT_3D ( 'NONE', #48, #95, #115 ) ;
#121 = CC_DESIGN_SECURITY_CLASSIFICATION ( #21, ( #169 ) ) ;
#122 = PERSON_AND_ORGANIZATION ( #206, #287 ) ;
#123 = DIRECTION ( 'NONE',  ( 0.0000000000000000000, -1.000000000000000000, 0.0000000000000000000 ) ) ;
#124 = MECHANICAL_CONTEXT ( 'NONE', #243, 'mechanical' ) ;
#125 =( NAMED_UNIT ( * ) PLANE_ANGLE_UNIT ( ) SI_UNIT ( $, .RADIAN. ) );
#126 = CC_DESIGN_PERSON_AND_ORGANIZATION_ASSIGNMENT ( #196, #188, ( #23 ) ) ;
#127 = DATE_TIME_ROLE ( 'classification_date' ) ;
#128 = APPROVAL ( #239, 'UNSPECIFIED' ) ;
#129 = PERSON_AND_ORGANIZATION ( #206, #287 ) ;
#130 = CIRCLE ( 'NONE', #179, 1.350000000000000533 ) ;
#131 = FACE_OUTER_BOUND ( 'NONE', #2, .T. ) ;
#132 = CARTESIAN_POINT ( 'NONE',  ( 1.361677722148822166E-14, -4.723420301830843895E-16, 3.900000000000000799 ) ) ;
#133 = AXIS2_PLACEMENT_3D ( 'NONE', #56, #212, #202 ) ;
#134 = EDGE_LOOP ( 'NONE', ( #139 ) ) ;
#135 = VERTEX_POINT ( 'NONE', #305 ) ;
#136 = ORIENTED_EDGE ( 'NONE', *, *, #184, .T. ) ;
#137 = ADVANCED_FACE ( 'NONE', ( #215 ), #238, .T. ) ;
#138 = DIRECTION ( 'NONE',  ( 4.275831445896958607E-31, 1.000000000000000000, 1.224646799147353207E-16 ) ) ;
#139 = ORIENTED_EDGE ( 'NONE', *, *, #235, .T. ) ;
#140 = CARTESIAN_POINT ( 'NONE',  ( 1.361677722148822166E-14, 0.9226280066714810379, 3.900000000000000799 ) ) ;
#141 = DIRECTION ( 'NONE',  ( 3.491481338843133355E-15, -1.225678153645275576E-16, 1.000000000000000000 ) ) ;
#142 = CARTESIAN_POINT ( 'NONE',  ( 1.256933281983527692E-14, -0.9000000000000005773, 3.599999999999999201 ) ) ;
#143 = EDGE_LOOP ( 'NONE', ( #62 ) ) ;
#144 = MANIFOLD_SOLID_BREP ( 'Corps-Déplacer/Copier4[1]', #44 ) ;
#145 = CARTESIAN_POINT ( 'NONE',  ( 9.426999614876461637E-15, 0.8999999999999995781, 2.700000000000000178 ) ) ;
#146 = FACE_BOUND ( 'NONE', #160, .T. ) ;
#147 = APPROVAL_DATE_TIME ( #99, #128 ) ;
#148 = DIRECTION ( 'NONE',  ( 0.0000000000000000000, -1.000000000000000000, 0.0000000000000000000 ) ) ;
#149 = CIRCLE ( 'NONE', #103, 2.950000000000000178 ) ;
#150 = ADVANCED_FACE ( 'NONE', ( #213, #146 ), #266, .F. ) ;
#151 = APPROVAL_ROLE ( '' ) ;
#152 = APPROVAL_PERSON_ORGANIZATION ( #262, #128, #318 ) ;
#153 = CALENDAR_DATE ( 2022, 11, 1 ) ;
#154 = APPROVAL ( #80, 'UNSPECIFIED' ) ;
#155 = APPROVAL_DATE_TIME ( #297, #154 ) ;
#156 = DESIGN_CONTEXT ( 'detailed design', #67, 'design' ) ;
#157 = PERSON_AND_ORGANIZATION ( #206, #287 ) ;
#158 = CIRCLE ( 'NONE', #84, 0.9226280066714814820 ) ;
#159 = CARTESIAN_POINT ( 'NONE',  ( -3.634529961536213092E-31, 1.274821501774165064E-32, -1.040970753903693247E-16 ) ) ;
#160 = EDGE_LOOP ( 'NONE', ( #104 ) ) ;
#161 = FACE_OUTER_BOUND ( 'NONE', #41, .T. ) ;
#162 = EDGE_LOOP ( 'NONE', ( #70 ) ) ;
#163 = DIRECTION ( 'NONE',  ( 4.279432400880186472E-31, 1.000000000000000000, 1.225678153645275576E-16 ) ) ;
#164 = DIRECTION ( 'NONE',  ( -3.491481338843133355E-15, 1.225678153645275576E-16, -1.000000000000000000 ) ) ;
#165 = EDGE_LOOP ( 'NONE', ( #83 ) ) ;
#166 = DIRECTION ( 'NONE',  ( 3.491481338843133355E-15, -1.225678153645275576E-16, 1.000000000000000000 ) ) ;
#167 = FACE_OUTER_BOUND ( 'NONE', #306, .T. ) ;
#168 = CARTESIAN_POINT ( 'NONE',  ( 1.920314736363723472E-13, -6.735557395310442615E-15, 55.00000000000000000 ) ) ;
#169 = PRODUCT_DEFINITION_FORMATION_WITH_SPECIFIED_SOURCE ( 'ANY', '', #176, .NOT_KNOWN. ) ;
#170 = DIRECTION ( 'NONE',  ( -4.279432400880186472E-31, -1.000000000000000000, -1.225678153645275576E-16 ) ) ;
#171 = PERSON_AND_ORGANIZATION ( #206, #287 ) ;
#172 = CYLINDRICAL_SURFACE ( 'NONE', #279, 0.9000000000000000222 ) ;
#173 = VERTEX_POINT ( 'NONE', #264 ) ;
#174 = CONICAL_SURFACE ( 'NONE', #60, 1.350000000000000533, 0.2094395102393125374 ) ;
#175 = EDGE_CURVE ( 'NONE', #15, #15, #269, .T. ) ;
#176 = PRODUCT ( '384651', '384651', '', ( #124 ) ) ;
#177 = ADVANCED_FACE ( 'NONE', ( #91, #254 ), #186, .T. ) ;
#178 = VERTEX_POINT ( 'NONE', #273 ) ;
#179 = AXIS2_PLACEMENT_3D ( 'NONE', #258, #303, #10 ) ;
#180 = EDGE_LOOP ( 'NONE', ( #8 ) ) ;
#181 = FACE_BOUND ( 'NONE', #252, .T. ) ;
#182 = EDGE_LOOP ( 'NONE', ( #299 ) ) ;
#183 = DIRECTION ( 'NONE',  ( -3.491481338843133355E-15, 1.224646799147353207E-16, -1.000000000000000000 ) ) ;
#184 = EDGE_CURVE ( 'NONE', #222, #222, #130, .T. ) ;
#185 = AXIS2_PLACEMENT_3D ( 'NONE', #275, #233, #309 ) ;
#186 = CYLINDRICAL_SURFACE ( 'NONE', #185, 2.999999999999998668 ) ;
#187 = FACE_OUTER_BOUND ( 'NONE', #143, .T. ) ;
#188 = PERSON_AND_ORGANIZATION_ROLE ( 'creator' ) ;
#189 = DIRECTION ( 'NONE',  ( 0.0000000000000000000, -1.000000000000000000, 0.0000000000000000000 ) ) ;
#190 = PRODUCT_RELATED_PRODUCT_CATEGORY ( 'detail', '', ( #176 ) ) ;
#191 = PERSON_AND_ORGANIZATION_ROLE ( 'design_owner' ) ;
#192 =( GEOMETRIC_REPRESENTATION_CONTEXT ( 3 ) GLOBAL_UNCERTAINTY_ASSIGNED_CONTEXT ( ( #81 ) ) GLOBAL_UNIT_ASSIGNED_CONTEXT ( ( #311, #125, #219 ) ) REPRESENTATION_CONTEXT ( 'NONE', 'WORKASPACE' ) );
#193 = DIRECTION ( 'NONE',  ( 3.491481338843133355E-15, -1.225678153645275576E-16, 1.000000000000000000 ) ) ;
#194 = CALENDAR_DATE ( 2022, 11, 1 ) ;
#195 = CC_DESIGN_DATE_AND_TIME_ASSIGNMENT ( #75, #267, ( #23 ) ) ;
#196 = PERSON_AND_ORGANIZATION ( #206, #287 ) ;
#197 = AXIS2_PLACEMENT_3D ( 'NONE', #47, #24, #242 ) ;
#198 = SECURITY_CLASSIFICATION_LEVEL ( 'unclassified' ) ;
#199 = AXIS2_PLACEMENT_3D ( 'NONE', #277, #183, #307 ) ;
#200 = EDGE_CURVE ( 'NONE', #69, #69, #225, .T. ) ;
#201 = EDGE_LOOP ( 'NONE', ( #282 ) ) ;
#202 = DIRECTION ( 'NONE',  ( 0.0000000000000000000, -1.000000000000000000, 0.0000000000000000000 ) ) ;
#203 = AXIS2_PLACEMENT_3D ( 'NONE', #93, #263, #22 ) ;
#204 = APPROVAL_PERSON_ORGANIZATION ( #157, #154, #322 ) ;
#205 = PLANE ( 'NONE',  #245 ) ;
#206 = PERSON ( 'UNSPECIFIED', 'UNSPECIFIED', 'UNSPECIFIED', ('UNSPECIFIED'), ('UNSPECIFIED'), ('UNSPECIFIED') ) ;
#207 = ORIENTED_EDGE ( 'NONE', *, *, #92, .F. ) ;
#208 = ADVANCED_FACE ( 'NONE', ( #161, #7 ), #314, .F. ) ;
#209 = CARTESIAN_POINT ( 'NONE',  ( 1.920314736363723472E-13, -6.735557395310442615E-15, 55.00000000000000000 ) ) ;
#210 = DIRECTION ( 'NONE',  ( 3.491481338843133355E-15, -1.225678153645275576E-16, 1.000000000000000000 ) ) ;
#211 = DIRECTION ( 'NONE',  ( 3.491481338843133355E-15, -1.225678153645275576E-16, 1.000000000000000000 ) ) ;
#212 = DIRECTION ( 'NONE',  ( 3.491481338843133355E-15, -1.225678153645275576E-16, 1.000000000000000000 ) ) ;
#213 = FACE_OUTER_BOUND ( 'NONE', #180, .T. ) ;
#214 = CARTESIAN_POINT ( 'NONE',  ( 9.426999614876463215E-15, -0.9000000000000002442, 2.700000000000001066 ) ) ;
#215 = FACE_OUTER_BOUND ( 'NONE', #234, .T. ) ;
#216 = CARTESIAN_POINT ( 'NONE',  ( 1.899365848330664293E-13, -6.662016706091725050E-15, 54.39999999999999858 ) ) ;
#217 = AXIS2_PLACEMENT_3D ( 'NONE', #216, #17, #312 ) ;
#218 = LOCAL_TIME ( 11, 23, 7.000000000000000000, #224 ) ;
#219 =( NAMED_UNIT ( * ) SI_UNIT ( $, .STERADIAN. ) SOLID_ANGLE_UNIT ( ) );
#220 = DIRECTION ( 'NONE',  ( 0.0000000000000000000, -1.000000000000000000, 0.0000000000000000000 ) ) ;
#221 = VERTEX_POINT ( 'NONE', #142 ) ;
#222 = VERTEX_POINT ( 'NONE', #118 ) ;
#223 = CIRCLE ( 'NONE', #26, 3.000000000000002665 ) ;
#224 = COORDINATED_UNIVERSAL_TIME_OFFSET ( 1, 0, .AHEAD. ) ;
#225 = CIRCLE ( 'NONE', #199, 0.8999999999999999112 ) ;
#226 = CC_DESIGN_APPROVAL ( #154, ( #21 ) ) ;
#227 = PLANE ( 'NONE',  #249 ) ;
#228 = AXIS2_PLACEMENT_3D ( 'NONE', #244, #66, #260 ) ;
#229 = FACE_OUTER_BOUND ( 'NONE', #109, .T. ) ;
#230 = EDGE_LOOP ( 'NONE', ( #6 ) ) ;
#231 = CARTESIAN_POINT ( 'NONE',  ( 1.256933281983528008E-14, -4.336808689942017736E-16, 3.600000000000000089 ) ) ;
#232 = EDGE_LOOP ( 'NONE', ( #302 ) ) ;
#233 = DIRECTION ( 'NONE',  ( 3.491481338843133355E-15, -1.225678153645275576E-16, 1.000000000000000000 ) ) ;
#234 = EDGE_LOOP ( 'NONE', ( #119 ) ) ;
#235 = EDGE_CURVE ( 'NONE', #45, #45, #30, .T. ) ;
#236 = FACE_OUTER_BOUND ( 'NONE', #182, .T. ) ;
#237 = CLOSED_SHELL ( 'NONE', ( #31, #248, #137 ) ) ;
#238 = PLANE ( 'NONE',  #120 ) ;
#239 = APPROVAL_STATUS ( 'not_yet_approved' ) ;
#240 = FACE_OUTER_BOUND ( 'NONE', #11, .T. ) ;
#241 = DIRECTION ( 'NONE',  ( 3.491481338843133355E-15, -1.225678153645275576E-16, 1.000000000000000000 ) ) ;
#242 = DIRECTION ( 'NONE',  ( 1.000000000000000000, 0.0000000000000000000, 0.0000000000000000000 ) ) ;
#243 = APPLICATION_CONTEXT ( 'configuration controlled 3d designs of mechanical parts and assemblies' ) ;
#244 = CARTESIAN_POINT ( 'NONE',  ( -1.817264980768106546E-31, 6.374107508870825318E-33, -5.204853769518466234E-17 ) ) ;
#245 = AXIS2_PLACEMENT_3D ( 'NONE', #140, #210, #58 ) ;
#246 = ADVANCED_FACE ( 'NONE', ( #37, #181 ), #174, .T. ) ;
#247 = COORDINATED_UNIVERSAL_TIME_OFFSET ( 1, 0, .AHEAD. ) ;
#248 = ADVANCED_FACE ( 'NONE', ( #112, #236 ), #61, .T. ) ;
#249 = AXIS2_PLACEMENT_3D ( 'NONE', #209, #164, #163 ) ;
#250 = DIRECTION ( 'NONE',  ( 3.491481338843133355E-15, -1.225678153645275576E-16, 1.000000000000000000 ) ) ;
#251 = DIRECTION ( 'NONE',  ( 4.275831445896958607E-31, 1.000000000000000000, 1.224646799147353207E-16 ) ) ;
#252 = EDGE_LOOP ( 'NONE', ( #136 ) ) ;
#253 = AXIS2_PLACEMENT_3D ( 'NONE', #310, #211, #170 ) ;
#254 = FACE_OUTER_BOUND ( 'NONE', #162, .T. ) ;
#255 = FACE_OUTER_BOUND ( 'NONE', #106, .T. ) ;
#256 = ORIENTED_EDGE ( 'NONE', *, *, #92, .T. ) ;
#257 = ADVANCED_FACE ( 'NONE', ( #255, #34 ), #205, .F. ) ;
#258 = CARTESIAN_POINT ( 'NONE',  ( 1.361677722148822166E-14, -4.723420301830843895E-16, 3.900000000000000799 ) ) ;
#259 = DIRECTION ( 'NONE',  ( 0.0000000000000000000, -1.000000000000000000, 0.0000000000000000000 ) ) ;
#260 = DIRECTION ( 'NONE',  ( -4.275831445896958607E-31, -1.000000000000000000, -1.224646799147353207E-16 ) ) ;
#261 = APPROVAL_PERSON_ORGANIZATION ( #122, #265, #151 ) ;
#262 = PERSON_AND_ORGANIZATION ( #206, #287 ) ;
#263 = DIRECTION ( 'NONE',  ( 3.491481338843133355E-15, -1.225678153645275576E-16, 1.000000000000000000 ) ) ;
#264 = CARTESIAN_POINT ( 'NONE',  ( 3.989858239493480177E-14, -2.950000000000001510, 11.42740817516578389 ) ) ;
#265 = APPROVAL ( #98, 'UNSPECIFIED' ) ;
#266 = PLANE ( 'NONE',  #68 ) ;
#267 = DATE_TIME_ROLE ( 'creation_date' ) ;
#268 = CC_DESIGN_PERSON_AND_ORGANIZATION_ASSIGNMENT ( #102, #82, ( #169 ) ) ;
#269 = CIRCLE ( 'NONE', #133, 0.8999999999999999112 ) ;
#270 = CC_DESIGN_APPROVAL ( #265, ( #169 ) ) ;
#271 = CIRCLE ( 'NONE', #295, 2.400000000000003020 ) ;
#272 = CC_DESIGN_APPROVAL ( #128, ( #23 ) ) ;
#273 = CARTESIAN_POINT ( 'NONE',  ( 1.920314736363723472E-13, -2.400000000000009681, 55.00000000000000000 ) ) ;
#274 = ORIENTED_EDGE ( 'NONE', *, *, #27, .T. ) ;
#275 = CARTESIAN_POINT ( 'NONE',  ( 1.920314736363723472E-13, -6.735557395310442615E-15, 55.00000000000000000 ) ) ;
#276 = ORIENTED_EDGE ( 'NONE', *, *, #184, .F. ) ;
#277 = CARTESIAN_POINT ( 'NONE',  ( 9.426999614876461637E-15, -3.306546357697853733E-16, 2.700000000000000178 ) ) ;
#278 = ORIENTED_EDGE ( 'NONE', *, *, #38, .F. ) ;
#279 = AXIS2_PLACEMENT_3D ( 'NONE', #14, #97, #220 ) ;
#280 = DIRECTION ( 'NONE',  ( 3.491481338843133355E-15, -1.225678153645275576E-16, 1.000000000000000000 ) ) ;
#281 = CC_DESIGN_PERSON_AND_ORGANIZATION_ASSIGNMENT ( #296, #25, ( #169 ) ) ;
#282 = ORIENTED_EDGE ( 'NONE', *, *, #27, .F. ) ;
#283 = DIRECTION ( 'NONE',  ( -3.491481338843133355E-15, 1.224646799147353207E-16, -1.000000000000000000 ) ) ;
#284 = FACE_BOUND ( 'NONE', #201, .T. ) ;
#285 = PLANE ( 'NONE',  #228 ) ;
#286 = CARTESIAN_POINT ( 'NONE',  ( 4.957903501157248102E-14, -2.999999999999996891, 14.19999999999999751 ) ) ;
#287 = ORGANIZATION ( 'UNSPECIFIED', 'UNSPECIFIED', '' ) ;
#288 = AXIS2_PLACEMENT_3D ( 'NONE', #108, #250, #13 ) ;
#289 = CARTESIAN_POINT ( 'NONE',  ( 1.361677722148822166E-14, -4.723420301830843895E-16, 3.900000000000000799 ) ) ;
#290 = VERTEX_POINT ( 'NONE', #286 ) ;
#291 = EDGE_LOOP ( 'NONE', ( #256 ) ) ;
#292 = DATE_AND_TIME ( #194, #53 ) ;
#293 = COORDINATED_UNIVERSAL_TIME_OFFSET ( 1, 0, .AHEAD. ) ;
#294 = ADVANCED_FACE ( 'NONE', ( #39, #131 ), #89, .T. ) ;
#295 = AXIS2_PLACEMENT_3D ( 'NONE', #168, #46, #189 ) ;
#296 = PERSON_AND_ORGANIZATION ( #206, #287 ) ;
#297 = DATE_AND_TIME ( #79, #218 ) ;
#298 = SHAPE_DEFINITION_REPRESENTATION ( #101, #40 ) ;
#299 = ORIENTED_EDGE ( 'NONE', *, *, #200, .T. ) ;
#300 = EDGE_LOOP ( 'NONE', ( #278 ) ) ;
#301 = CARTESIAN_POINT ( 'NONE',  ( 1.899365848330664293E-13, -3.000000000000009326, 54.39999999999999858 ) ) ;
#302 = ORIENTED_EDGE ( 'NONE', *, *, #319, .T. ) ;
#303 = DIRECTION ( 'NONE',  ( 3.491481338843133355E-15, -1.225678153645275576E-16, 1.000000000000000000 ) ) ;
#304 = CC_DESIGN_PERSON_AND_ORGANIZATION_ASSIGNMENT ( #129, #51, ( #21 ) ) ;
#305 = CARTESIAN_POINT ( 'NONE',  ( 4.957903501157248102E-14, -2.950000000000001954, 14.19999999999999751 ) ) ;
#306 = EDGE_LOOP ( 'NONE', ( #88 ) ) ;
#307 = DIRECTION ( 'NONE',  ( 0.0000000000000000000, 1.000000000000000000, 0.0000000000000000000 ) ) ;
#308 = DIRECTION ( 'NONE',  ( 3.491481338843133355E-15, -1.225678153645275576E-16, 1.000000000000000000 ) ) ;
#309 = DIRECTION ( 'NONE',  ( 0.0000000000000000000, -1.000000000000000000, 0.0000000000000000000 ) ) ;
#310 = CARTESIAN_POINT ( 'NONE',  ( 9.426999614876461637E-15, 0.8999999999999995781, 2.700000000000000178 ) ) ;
#311 =( LENGTH_UNIT ( ) NAMED_UNIT ( * ) SI_UNIT ( .MILLI., .METRE. ) );
#312 = DIRECTION ( 'NONE',  ( 0.0000000000000000000, 1.000000000000000000, 0.0000000000000000000 ) ) ;
#313 = CARTESIAN_POINT ( 'NONE',  ( 1.361677722148822166E-14, -0.9226280066714819261, 3.900000000000000799 ) ) ;
#314 = TOROIDAL_SURFACE ( 'NONE', #36, 2.900000000000000355, 2.000000000000000000 ) ;
#315 = CARTESIAN_POINT ( 'NONE',  ( 4.957903501157248102E-14, -1.734790528437717811E-15, 14.19999999999999751 ) ) ;
#316 = APPLICATION_PROTOCOL_DEFINITION ( 'international standard', 'config_control_design', 1994, #67 ) ;
#317 = PLANE ( 'NONE',  #253 ) ;
#318 = APPROVAL_ROLE ( '' ) ;
#319 = EDGE_CURVE ( 'NONE', #221, #221, #107, .T. ) ;
#320 = CIRCLE ( 'NONE', #203, 2.950000000000000178 ) ;
#321 = LOCAL_TIME ( 11, 23, 7.000000000000000000, #28 ) ;
#322 = APPROVAL_ROLE ( '' ) ;
#323 = ADVANCED_FACE ( 'NONE', ( #229 ), #227, .F. ) ;
ENDSEC;
END-ISO-10303-21;
