ISO-10303-21;
HEADER;
FILE_DESCRIPTION (( 'STEP AP203' ),
    '1' );
FILE_NAME ('384650.step',
    '2022-01-11T10:23:06',
    ( '' ),
    ( '' ),
    'SwSTEP 2.0',
    'SolidWorks 2019',
    '' );
FILE_SCHEMA (( 'CONFIG_CONTROL_DESIGN' ));
ENDSEC;

DATA;
#1 = FACE_OUTER_BOUND ( 'NONE', #147, .T. ) ;
#2 = APPROVAL ( #227, 'UNSPECIFIED' ) ;
#3 = CYLINDRICAL_SURFACE ( 'NONE', #211, 0.8499999999999996447 ) ;
#4 = CARTESIAN_POINT ( 'NONE',  ( 9.077851480992146724E-15, -3.184081677783118191E-16, 2.600000000000000089 ) ) ;
#5 = FACE_OUTER_BOUND ( 'NONE', #19, .T. ) ;
#6 = CIRCLE ( 'NONE', #139, 0.8499999999999995337 ) ;
#7 = CARTESIAN_POINT ( 'NONE',  ( 1.361677722148822009E-14, 0.9115970911049516845, 3.899999999999999911 ) ) ;
#8 = APPLICATION_CONTEXT ( 'configuration controlled 3d designs of mechanical parts and assemblies' ) ;
#9 = DIRECTION ( 'NONE',  ( 0.0000000000000000000, 1.000000000000000000, 0.0000000000000000000 ) ) ;
#10 = APPROVAL_DATE_TIME ( #302, #160 ) ;
#11 = DIRECTION ( 'NONE',  ( 0.0000000000000000000, 1.000000000000000000, 0.0000000000000000000 ) ) ;
#12 = ORIENTED_EDGE ( 'NONE', *, *, #246, .T. ) ;
#13 = PRODUCT_DEFINITION_SHAPE ( 'NONE', 'NONE',  #59 ) ;
#14 = ORIENTED_EDGE ( 'NONE', *, *, #183, .F. ) ;
#15 = PERSON_AND_ORGANIZATION_ROLE ( 'design_owner' ) ;
#16 = ADVANCED_FACE ( 'NONE', ( #173 ), #203, .F. ) ;
#17 = FACE_BOUND ( 'NONE', #259, .T. ) ;
#18 = APPROVAL_DATE_TIME ( #257, #80 ) ;
#19 = EDGE_LOOP ( 'NONE', ( #253 ) ) ;
#20 = ADVANCED_BREP_SHAPE_REPRESENTATION ( '384650', ( #121, #122, #238 ), #294 ) ;
#21 = DIRECTION ( 'NONE',  ( -3.491481338843133355E-15, 1.224646799147353207E-16, -1.000000000000000000 ) ) ;
#22 = ADVANCED_FACE ( 'NONE', ( #17, #204 ), #249, .T. ) ;
#23 = AXIS2_PLACEMENT_3D ( 'NONE', #54, #106, #240 ) ;
#24 = CYLINDRICAL_SURFACE ( 'NONE', #86, 0.8499999999999998668 ) ;
#25 = FACE_OUTER_BOUND ( 'NONE', #140, .T. ) ;
#26 = FACE_OUTER_BOUND ( 'NONE', #333, .T. ) ;
#27 = ADVANCED_FACE ( 'NONE', ( #127, #317 ), #209, .F. ) ;
#28 = DIRECTION ( 'NONE',  ( -3.491481338843133355E-15, 1.224646799147353207E-16, -1.000000000000000000 ) ) ;
#29 = CLOSED_SHELL ( 'NONE', ( #16, #206, #83, #22, #27, #141, #118, #286, #66, #187, #298 ) ) ;
#30 = CARTESIAN_POINT ( 'NONE',  ( 1.332287612930166558E-14, -4.673035890431550749E-16, 3.815823381635504941 ) ) ;
#31 = EDGE_CURVE ( 'NONE', #216, #216, #152, .T. ) ;
#32 = CARTESIAN_POINT ( 'NONE',  ( 3.989858239493480808E-14, 2.949999999999998845, 11.42740817516578566 ) ) ;
#33 = CIRCLE ( 'NONE', #48, 0.9115970911049521286 ) ;
#34 = PERSON_AND_ORGANIZATION_ROLE ( 'classification_officer' ) ;
#35 = VERTEX_POINT ( 'NONE', #327 ) ;
#36 = DIRECTION ( 'NONE',  ( -3.491481338843133355E-15, 1.224646799147353207E-16, -1.000000000000000000 ) ) ;
#37 = CC_DESIGN_PERSON_AND_ORGANIZATION_ASSIGNMENT ( #222, #190, ( #120 ) ) ;
#38 = CARTESIAN_POINT ( 'NONE',  ( 1.361677722148822009E-14, -4.776122516674677286E-16, 3.899999999999999911 ) ) ;
#39 = CONICAL_SURFACE ( 'NONE', #52, 2.949999999999999734, 0.2094395102393124819 ) ;
#40 = CARTESIAN_POINT ( 'NONE',  ( 1.361677722148821693E-14, 1.349999999999999645, 3.899999999999999023 ) ) ;
#41 = EDGE_LOOP ( 'NONE', ( #198 ) ) ;
#42 = DATE_AND_TIME ( #280, #199 ) ;
#43 = ORIENTED_EDGE ( 'NONE', *, *, #241, .T. ) ;
#44 = ORIENTED_EDGE ( 'NONE', *, *, #260, .F. ) ;
#45 = DIRECTION ( 'NONE',  ( 3.491481338843133355E-15, -1.224646799147353207E-16, 1.000000000000000000 ) ) ;
#46 = ADVANCED_FACE ( 'NONE', ( #1, #96 ), #3, .T. ) ;
#47 = FACE_OUTER_BOUND ( 'NONE', #170, .T. ) ;
#48 = AXIS2_PLACEMENT_3D ( 'NONE', #159, #213, #287 ) ;
#49 = DIRECTION ( 'NONE',  ( -4.275831445896958607E-31, -1.000000000000000000, -1.224646799147353207E-16 ) ) ;
#50 = DIRECTION ( 'NONE',  ( -3.491481338843133355E-15, 1.224646799147353207E-16, -1.000000000000000000 ) ) ;
#51 = DIRECTION ( 'NONE',  ( 3.491481338843133355E-15, -1.224646799147353207E-16, 1.000000000000000000 ) ) ;
#52 = AXIS2_PLACEMENT_3D ( 'NONE', #181, #45, #97 ) ;
#53 = DIRECTION ( 'NONE',  ( 4.275831445896958607E-31, 1.000000000000000000, 1.224646799147353207E-16 ) ) ;
#54 = CARTESIAN_POINT ( 'NONE',  ( -1.710369194620682318E-31, 5.999167563205360232E-33, -4.898692069731627378E-17 ) ) ;
#55 = VERTEX_POINT ( 'NONE', #244 ) ;
#56 = VERTEX_POINT ( 'NONE', #174 ) ;
#57 = AXIS2_PLACEMENT_3D ( 'NONE', #101, #343, #265 ) ;
#58 = CALENDAR_DATE ( 2022, 11, 1 ) ;
#59 = PRODUCT_DEFINITION ( 'UNKNOWN', '', #120, #158 ) ;
#60 = CARTESIAN_POINT ( 'NONE',  ( 1.361677722148821693E-14, -4.776122516674676300E-16, 3.899999999999999023 ) ) ;
#61 = DIRECTION ( 'NONE',  ( 0.0000000000000000000, 0.0000000000000000000, 1.000000000000000000 ) ) ;
#62 = ORIENTED_EDGE ( 'NONE', *, *, #260, .T. ) ;
#63 = CC_DESIGN_APPROVAL ( #80, ( #120 ) ) ;
#64 =( NAMED_UNIT ( * ) PLANE_ANGLE_UNIT ( ) SI_UNIT ( $, .RADIAN. ) );
#65 = EDGE_LOOP ( 'NONE', ( #225 ) ) ;
#66 = ADVANCED_FACE ( 'NONE', ( #155, #26 ), #98, .T. ) ;
#67 = CALENDAR_DATE ( 2022, 11, 1 ) ;
#68 = EDGE_LOOP ( 'NONE', ( #62 ) ) ;
#69 = AXIS2_PLACEMENT_3D ( 'NONE', #261, #21, #231 ) ;
#70 = EDGE_CURVE ( 'NONE', #82, #82, #33, .T. ) ;
#71 = CARTESIAN_POINT ( 'NONE',  ( 9.077851480992146724E-15, 6.373979076312889359E-33, 2.600000000000000089 ) ) ;
#72 = CARTESIAN_POINT ( 'NONE',  ( 0.0000000000000000000, 0.0000000000000000000, 0.0000000000000000000 ) ) ;
#73 = AXIS2_PLACEMENT_3D ( 'NONE', #196, #36, #108 ) ;
#74 = PLANE ( 'NONE',  #285 ) ;
#75 = UNCERTAINTY_MEASURE_WITH_UNIT (LENGTH_MEASURE( 1.000000000000000082E-05 ), #309, 'distance_accuracy_value', 'NONE');
#76 = CARTESIAN_POINT ( 'NONE',  ( -3.420738389241364637E-31, 1.199833512641072046E-32, -9.797384139463254756E-17 ) ) ;
#77 = VERTEX_POINT ( 'NONE', #293 ) ;
#78 = LOCAL_TIME ( 11, 23, 6.000000000000000000, #224 ) ;
#79 = DIRECTION ( 'NONE',  ( -3.491481338843133355E-15, 1.224646799147353207E-16, -1.000000000000000000 ) ) ;
#80 = APPROVAL ( #110, 'UNSPECIFIED' ) ;
#81 = CARTESIAN_POINT ( 'NONE',  ( 1.187103655206665183E-14, 0.8499999999999995337, 3.399999999999999911 ) ) ;
#82 = VERTEX_POINT ( 'NONE', #7 ) ;
#83 = ADVANCED_FACE ( 'NONE', ( #235, #233 ), #205, .F. ) ;
#84 = SECURITY_CLASSIFICATION_LEVEL ( 'unclassified' ) ;
#85 = DIRECTION ( 'NONE',  ( -4.275831445896958607E-31, -1.000000000000000000, -1.224646799147353207E-16 ) ) ;
#86 = AXIS2_PLACEMENT_3D ( 'NONE', #72, #79, #53 ) ;
#87 =( NAMED_UNIT ( * ) SI_UNIT ( $, .STERADIAN. ) SOLID_ANGLE_UNIT ( ) );
#88 = EDGE_LOOP ( 'NONE', ( #258 ) ) ;
#89 = PERSON_AND_ORGANIZATION ( #234, #189 ) ;
#90 = ORIENTED_EDGE ( 'NONE', *, *, #246, .F. ) ;
#91 = ADVANCED_FACE ( 'NONE', ( #237 ), #74, .T. ) ;
#92 = CIRCLE ( 'NONE', #308, 0.8937047985323859356 ) ;
#93 = DIRECTION ( 'NONE',  ( 0.0000000000000000000, -1.000000000000000000, 0.0000000000000000000 ) ) ;
#94 = EDGE_LOOP ( 'NONE', ( #251 ) ) ;
#95 = ORIENTED_EDGE ( 'NONE', *, *, #183, .T. ) ;
#96 = FACE_OUTER_BOUND ( 'NONE', #312, .T. ) ;
#97 = DIRECTION ( 'NONE',  ( 0.0000000000000000000, -1.000000000000000000, 0.0000000000000000000 ) ) ;
#98 = CYLINDRICAL_SURFACE ( 'NONE', #320, 2.999999999999998668 ) ;
#99 = CIRCLE ( 'NONE', #179, 3.000000000000002220 ) ;
#100 = FACE_OUTER_BOUND ( 'NONE', #149, .T. ) ;
#101 = CARTESIAN_POINT ( 'NONE',  ( 1.187103655206665183E-14, -4.336808689942017736E-16, 3.399999999999999467 ) ) ;
#102 = DIRECTION ( 'NONE',  ( 0.0000000000000000000, 1.000000000000000000, 0.0000000000000000000 ) ) ;
#103 = AXIS2_PLACEMENT_3D ( 'NONE', #136, #245, #247 ) ;
#104 = FACE_OUTER_BOUND ( 'NONE', #278, .T. ) ;
#105 = COORDINATED_UNIVERSAL_TIME_OFFSET ( 1, 0, .AHEAD. ) ;
#106 = DIRECTION ( 'NONE',  ( 3.491481338843133355E-15, -1.224646799147353207E-16, 1.000000000000000000 ) ) ;
#107 = DIRECTION ( 'NONE',  ( 0.0000000000000000000, 1.000000000000000000, 0.0000000000000000000 ) ) ;
#108 = DIRECTION ( 'NONE',  ( 4.275831445896958607E-31, 1.000000000000000000, 1.224646799147353207E-16 ) ) ;
#109 = CIRCLE ( 'NONE', #315, 0.8499999999999998668 ) ;
#110 = APPROVAL_STATUS ( 'not_yet_approved' ) ;
#111 = EDGE_LOOP ( 'NONE', ( #281 ) ) ;
#112 = CC_DESIGN_DATE_AND_TIME_ASSIGNMENT ( #42, #277, ( #59 ) ) ;
#113 = MECHANICAL_CONTEXT ( 'NONE', #156, 'mechanical' ) ;
#114 = DIRECTION ( 'NONE',  ( 3.491481338843133355E-15, -1.224646799147353207E-16, 1.000000000000000000 ) ) ;
#115 = AXIS2_PLACEMENT_3D ( 'NONE', #38, #114, #93 ) ;
#116 = PERSON_AND_ORGANIZATION_ROLE ( 'creator' ) ;
#117 = ORIENTED_EDGE ( 'NONE', *, *, #70, .F. ) ;
#118 = ADVANCED_FACE ( 'NONE', ( #25, #100 ), #290, .T. ) ;
#119 = EDGE_LOOP ( 'NONE', ( #316 ) ) ;
#120 = PRODUCT_DEFINITION_FORMATION_WITH_SPECIFIED_SOURCE ( 'ANY', '', #192, .NOT_KNOWN. ) ;
#121 = MANIFOLD_SOLID_BREP ( 'Corps-Déplacer/Copier1[1]', #29 ) ;
#122 = MANIFOLD_SOLID_BREP ( 'Corps-Déplacer/Copier1[2]', #180 ) ;
#123 = CARTESIAN_POINT ( 'NONE',  ( 1.187103655206665183E-14, -4.163799117101000559E-16, 3.399999999999999911 ) ) ;
#124 = DIRECTION ( 'NONE',  ( 0.0000000000000000000, 1.000000000000000000, 0.0000000000000000000 ) ) ;
#125 = DIRECTION ( 'NONE',  ( -4.275831445896958607E-31, -1.000000000000000000, -1.224646799147353207E-16 ) ) ;
#126 = CONICAL_SURFACE ( 'NONE', #133, 2.400000000000003020, 0.7853981633974450594 ) ;
#127 = FACE_BOUND ( 'NONE', #256, .T. ) ;
#128 = EDGE_CURVE ( 'NONE', #191, #191, #6, .T. ) ;
#129 = CARTESIAN_POINT ( 'NONE',  ( 4.957903501157248733E-14, 4.461785353419020636E-32, 14.19999999999999929 ) ) ;
#130 = APPROVAL_STATUS ( 'not_yet_approved' ) ;
#131 = DIRECTION ( 'NONE',  ( 0.0000000000000000000, 1.000000000000000000, 0.0000000000000000000 ) ) ;
#132 = DATE_TIME_ROLE ( 'classification_date' ) ;
#133 = AXIS2_PLACEMENT_3D ( 'NONE', #263, #207, #182 ) ;
#134 = CARTESIAN_POINT ( 'NONE',  ( 4.957903501157248733E-14, 2.949999999999998845, 14.19999999999999929 ) ) ;
#135 = PLANE ( 'NONE',  #226 ) ;
#136 = CARTESIAN_POINT ( 'NONE',  ( 1.920314736363723472E-13, -6.735557395310442615E-15, 55.00000000000000000 ) ) ;
#137 = DATE_AND_TIME ( #58, #243 ) ;
#138 = APPROVAL_ROLE ( '' ) ;
#139 = AXIS2_PLACEMENT_3D ( 'NONE', #76, #28, #342 ) ;
#140 = EDGE_LOOP ( 'NONE', ( #14 ) ) ;
#141 = ADVANCED_FACE ( 'NONE', ( #208, #239 ), #39, .T. ) ;
#142 = CARTESIAN_POINT ( 'NONE',  ( 0.0000000000000000000, 0.0000000000000000000, 0.0000000000000000000 ) ) ;
#143 = EDGE_LOOP ( 'NONE', ( #95 ) ) ;
#144 = APPLICATION_PROTOCOL_DEFINITION ( 'international standard', 'config_control_design', 1994, #8 ) ;
#145 = CARTESIAN_POINT ( 'NONE',  ( 9.077851480992146724E-15, 6.373979076312889359E-33, 2.600000000000000089 ) ) ;
#146 = CC_DESIGN_DATE_AND_TIME_ASSIGNMENT ( #137, #132, ( #264 ) ) ;
#147 = EDGE_LOOP ( 'NONE', ( #314 ) ) ;
#148 = CIRCLE ( 'NONE', #103, 2.400000000000003020 ) ;
#149 = EDGE_LOOP ( 'NONE', ( #12 ) ) ;
#150 = DIRECTION ( 'NONE',  ( 4.275831445896958607E-31, 1.000000000000000000, 1.224646799147353207E-16 ) ) ;
#151 = FACE_OUTER_BOUND ( 'NONE', #94, .T. ) ;
#152 = CIRCLE ( 'NONE', #301, 0.8499999999999999778 ) ;
#153 = LOCAL_TIME ( 11, 23, 6.000000000000000000, #105 ) ;
#154 = CC_DESIGN_PERSON_AND_ORGANIZATION_ASSIGNMENT ( #171, #116, ( #59 ) ) ;
#155 = FACE_OUTER_BOUND ( 'NONE', #88, .T. ) ;
#156 = APPLICATION_CONTEXT ( 'configuration controlled 3d designs of mechanical parts and assemblies' ) ;
#157 = DIRECTION ( 'NONE',  ( 4.275831445896958607E-31, 1.000000000000000000, 1.224646799147353207E-16 ) ) ;
#158 = DESIGN_CONTEXT ( 'detailed design', #8, 'design' ) ;
#159 = CARTESIAN_POINT ( 'NONE',  ( 1.361677722148822009E-14, -4.776122516674677286E-16, 3.899999999999999911 ) ) ;
#160 = APPROVAL ( #130, 'UNSPECIFIED' ) ;
#161 = AXIS2_PLACEMENT_3D ( 'NONE', #4, #188, #102 ) ;
#162 = CC_DESIGN_APPROVAL ( #160, ( #264 ) ) ;
#163 = CARTESIAN_POINT ( 'NONE',  ( 9.077851480992146724E-15, -3.184081677783118191E-16, 2.600000000000000089 ) ) ;
#164 = CARTESIAN_POINT ( 'NONE',  ( 4.957903501157248733E-14, -1.738998454789241549E-15, 14.19999999999999929 ) ) ;
#165 = DIRECTION ( 'NONE',  ( -3.491481338843133355E-15, 1.224646799147353207E-16, -1.000000000000000000 ) ) ;
#166 = AXIS2_PLACEMENT_3D ( 'NONE', #322, #50, #157 ) ;
#167 = CARTESIAN_POINT ( 'NONE',  ( 4.957903501157248733E-14, -1.738998454789241549E-15, 14.19999999999999929 ) ) ;
#168 = DIRECTION ( 'NONE',  ( -3.491481338843133355E-15, 1.224646799147353207E-16, -1.000000000000000000 ) ) ;
#169 = COORDINATED_UNIVERSAL_TIME_OFFSET ( 1, 0, .AHEAD. ) ;
#170 = EDGE_LOOP ( 'NONE', ( #282 ) ) ;
#171 = PERSON_AND_ORGANIZATION ( #234, #189 ) ;
#172 = CIRCLE ( 'NONE', #69, 2.949999999999999734 ) ;
#173 = FACE_OUTER_BOUND ( 'NONE', #178, .T. ) ;
#174 = CARTESIAN_POINT ( 'NONE',  ( 9.077851480992146724E-15, 0.8499999999999995337, 2.600000000000000089 ) ) ;
#175 = ORIENTED_EDGE ( 'NONE', *, *, #313, .T. ) ;
#176 = PRODUCT_RELATED_PRODUCT_CATEGORY ( 'detail', '', ( #192 ) ) ;
#177 = EDGE_LOOP ( 'NONE', ( #284 ) ) ;
#178 = EDGE_LOOP ( 'NONE', ( #175 ) ) ;
#179 = AXIS2_PLACEMENT_3D ( 'NONE', #326, #242, #107 ) ;
#180 = CLOSED_SHELL ( 'NONE', ( #270, #46, #91 ) ) ;
#181 = CARTESIAN_POINT ( 'NONE',  ( 3.989858239493480808E-14, -1.399453884426707744E-15, 11.42740817516578566 ) ) ;
#182 = DIRECTION ( 'NONE',  ( 0.0000000000000000000, 1.000000000000000000, 0.0000000000000000000 ) ) ;
#183 = EDGE_CURVE ( 'NONE', #323, #323, #172, .T. ) ;
#184 = DIRECTION ( 'NONE',  ( -3.491481338843133355E-15, 1.224646799147353207E-16, -1.000000000000000000 ) ) ;
#185 = AXIS2_PLACEMENT_3D ( 'NONE', #167, #329, #276 ) ;
#186 = CARTESIAN_POINT ( 'NONE',  ( 1.361677722148821851E-14, 7.006985061564044622E-32, 3.899999999999999467 ) ) ;
#187 = ADVANCED_FACE ( 'NONE', ( #341, #318 ), #126, .T. ) ;
#188 = DIRECTION ( 'NONE',  ( -3.491481338843133355E-15, 1.224646799147353207E-16, -1.000000000000000000 ) ) ;
#189 = ORGANIZATION ( 'UNSPECIFIED', 'UNSPECIFIED', '' ) ;
#190 = PERSON_AND_ORGANIZATION_ROLE ( 'design_supplier' ) ;
#191 = VERTEX_POINT ( 'NONE', #219 ) ;
#192 = PRODUCT ( '384650', '384650', '', ( #113 ) ) ;
#193 = CARTESIAN_POINT ( 'NONE',  ( 1.332287612930166558E-14, 0.8937047985323856025, 3.815823381635504941 ) ) ;
#194 = VERTEX_POINT ( 'NONE', #300 ) ;
#195 = COORDINATED_UNIVERSAL_TIME_OFFSET ( 1, 0, .AHEAD. ) ;
#196 = CARTESIAN_POINT ( 'NONE',  ( 1.920314736363723472E-13, 1.799711739194220919E-32, 55.00000000000000000 ) ) ;
#197 = APPLICATION_PROTOCOL_DEFINITION ( 'international standard', 'config_control_design', 1994, #156 ) ;
#198 = ORIENTED_EDGE ( 'NONE', *, *, #70, .T. ) ;
#199 = LOCAL_TIME ( 11, 23, 6.000000000000000000, #169 ) ;
#200 = EDGE_LOOP ( 'NONE', ( #223 ) ) ;
#201 = APPROVAL_DATE_TIME ( #304, #2 ) ;
#202 = EDGE_LOOP ( 'NONE', ( #306 ) ) ;
#203 = PLANE ( 'NONE',  #292 ) ;
#204 = FACE_OUTER_BOUND ( 'NONE', #41, .T. ) ;
#205 = TOROIDAL_SURFACE ( 'NONE', #57, 2.850000000000000089, 2.000000000000000000 ) ;
#206 = ADVANCED_FACE ( 'NONE', ( #47, #151 ), #24, .T. ) ;
#207 = DIRECTION ( 'NONE',  ( -3.491481338843133355E-15, 1.224646799147353207E-16, -1.000000000000000000 ) ) ;
#208 = FACE_BOUND ( 'NONE', #65, .T. ) ;
#209 = PLANE ( 'NONE',  #210 ) ;
#210 = AXIS2_PLACEMENT_3D ( 'NONE', #186, #51, #125 ) ;
#211 = AXIS2_PLACEMENT_3D ( 'NONE', #291, #289, #150 ) ;
#212 = DIRECTION ( 'NONE',  ( -3.491481338843133355E-15, 1.224646799147353207E-16, -1.000000000000000000 ) ) ;
#213 = DIRECTION ( 'NONE',  ( -3.491481338843133355E-15, 1.224646799147353207E-16, -1.000000000000000000 ) ) ;
#214 = VERTEX_POINT ( 'NONE', #134 ) ;
#215 = LOCAL_TIME ( 11, 23, 6.000000000000000000, #311 ) ;
#216 = VERTEX_POINT ( 'NONE', #81 ) ;
#217 = EDGE_CURVE ( 'NONE', #35, #35, #330, .T. ) ;
#218 = SHAPE_DEFINITION_REPRESENTATION ( #13, #20 ) ;
#219 = CARTESIAN_POINT ( 'NONE',  ( 2.137183397710479182E-32, 0.8499999999999995337, 6.121136532892404794E-18 ) ) ;
#220 = PLANE ( 'NONE',  #23 ) ;
#221 = CC_DESIGN_PERSON_AND_ORGANIZATION_ASSIGNMENT ( #299, #34, ( #264 ) ) ;
#222 = PERSON_AND_ORGANIZATION ( #234, #189 ) ;
#223 = ORIENTED_EDGE ( 'NONE', *, *, #307, .T. ) ;
#224 = COORDINATED_UNIVERSAL_TIME_OFFSET ( 1, 0, .AHEAD. ) ;
#225 = ORIENTED_EDGE ( 'NONE', *, *, #331, .F. ) ;
#226 = AXIS2_PLACEMENT_3D ( 'NONE', #129, #275, #85 ) ;
#227 = APPROVAL_STATUS ( 'not_yet_approved' ) ;
#228 = PERSON_AND_ORGANIZATION ( #234, #189 ) ;
#229 = ORIENTED_EDGE ( 'NONE', *, *, #319, .T. ) ;
#230 = DIRECTION ( 'NONE',  ( 3.491481338843133355E-15, -1.224646799147353207E-16, 1.000000000000000000 ) ) ;
#231 = DIRECTION ( 'NONE',  ( 0.0000000000000000000, 1.000000000000000000, 0.0000000000000000000 ) ) ;
#232 = APPROVAL_PERSON_ORGANIZATION ( #255, #2, #305 ) ;
#233 = FACE_OUTER_BOUND ( 'NONE', #202, .T. ) ;
#234 = PERSON ( 'UNSPECIFIED', 'UNSPECIFIED', 'UNSPECIFIED', ('UNSPECIFIED'), ('UNSPECIFIED'), ('UNSPECIFIED') ) ;
#235 = FACE_OUTER_BOUND ( 'NONE', #68, .T. ) ;
#236 = CC_DESIGN_PERSON_AND_ORGANIZATION_ASSIGNMENT ( #283, #15, ( #192 ) ) ;
#237 = FACE_OUTER_BOUND ( 'NONE', #338, .T. ) ;
#238 = AXIS2_PLACEMENT_3D ( 'NONE', #142, #61, #252 ) ;
#239 = FACE_OUTER_BOUND ( 'NONE', #143, .T. ) ;
#240 = DIRECTION ( 'NONE',  ( -4.275831445896958607E-31, -1.000000000000000000, -1.224646799147353207E-16 ) ) ;
#241 = EDGE_CURVE ( 'NONE', #77, #77, #99, .T. ) ;
#242 = DIRECTION ( 'NONE',  ( -3.491481338843133355E-15, 1.224646799147353207E-16, -1.000000000000000000 ) ) ;
#243 = LOCAL_TIME ( 11, 23, 6.000000000000000000, #195 ) ;
#244 = CARTESIAN_POINT ( 'NONE',  ( 1.920314736363723472E-13, 2.399999999999995914, 55.00000000000000000 ) ) ;
#245 = DIRECTION ( 'NONE',  ( -3.491481338843133355E-15, 1.224646799147353207E-16, -1.000000000000000000 ) ) ;
#246 = EDGE_CURVE ( 'NONE', #214, #214, #268, .T. ) ;
#247 = DIRECTION ( 'NONE',  ( 0.0000000000000000000, 1.000000000000000000, 0.0000000000000000000 ) ) ;
#248 = CALENDAR_DATE ( 2022, 11, 1 ) ;
#249 = CONICAL_SURFACE ( 'NONE', #115, 0.9115970911049521286, 0.2094395102393130648 ) ;
#250 = VERTEX_POINT ( 'NONE', #40 ) ;
#251 = ORIENTED_EDGE ( 'NONE', *, *, #31, .T. ) ;
#252 = DIRECTION ( 'NONE',  ( 1.000000000000000000, 0.0000000000000000000, 0.0000000000000000000 ) ) ;
#253 = ORIENTED_EDGE ( 'NONE', *, *, #217, .T. ) ;
#254 = CC_DESIGN_PERSON_AND_ORGANIZATION_ASSIGNMENT ( #228, #337, ( #120 ) ) ;
#255 = PERSON_AND_ORGANIZATION ( #234, #189 ) ;
#256 = EDGE_LOOP ( 'NONE', ( #117 ) ) ;
#257 = DATE_AND_TIME ( #67, #215 ) ;
#258 = ORIENTED_EDGE ( 'NONE', *, *, #217, .F. ) ;
#259 = EDGE_LOOP ( 'NONE', ( #44 ) ) ;
#260 = EDGE_CURVE ( 'NONE', #324, #324, #92, .T. ) ;
#261 = CARTESIAN_POINT ( 'NONE',  ( 3.989858239493480808E-14, -1.399453884426707744E-15, 11.42740817516578566 ) ) ;
#262 = AXIS2_PLACEMENT_3D ( 'NONE', #60, #168, #11 ) ;
#263 = CARTESIAN_POINT ( 'NONE',  ( 1.920314736363723472E-13, -6.735557395310442615E-15, 55.00000000000000000 ) ) ;
#264 = SECURITY_CLASSIFICATION ( '', '', #84 ) ;
#265 = DIRECTION ( 'NONE',  ( 4.330584630233575981E-31, 1.000000000000000000, 1.224646799147353207E-16 ) ) ;
#266 = CARTESIAN_POINT ( 'NONE',  ( 0.0000000000000000000, 0.0000000000000000000, 0.0000000000000000000 ) ) ;
#267 = DIRECTION ( 'NONE',  ( 3.491481338843133355E-15, -1.224646799147353207E-16, 1.000000000000000000 ) ) ;
#268 = CIRCLE ( 'NONE', #334, 2.950000000000000178 ) ;
#269 = FACE_OUTER_BOUND ( 'NONE', #119, .T. ) ;
#270 = ADVANCED_FACE ( 'NONE', ( #269 ), #220, .F. ) ;
#271 = PERSON_AND_ORGANIZATION ( #234, #189 ) ;
#272 = FACE_BOUND ( 'NONE', #336, .T. ) ;
#273 = DIRECTION ( 'NONE',  ( -3.491481338843133355E-15, 1.224646799147353207E-16, -1.000000000000000000 ) ) ;
#274 = CIRCLE ( 'NONE', #161, 0.8499999999999998668 ) ;
#275 = DIRECTION ( 'NONE',  ( 3.491481338843133355E-15, -1.224646799147353207E-16, 1.000000000000000000 ) ) ;
#276 = DIRECTION ( 'NONE',  ( 0.0000000000000000000, 1.000000000000000000, 0.0000000000000000000 ) ) ;
#277 = DATE_TIME_ROLE ( 'creation_date' ) ;
#278 = EDGE_LOOP ( 'NONE', ( #310 ) ) ;
#279 = CC_DESIGN_APPROVAL ( #2, ( #59 ) ) ;
#280 = CALENDAR_DATE ( 2022, 11, 1 ) ;
#281 = ORIENTED_EDGE ( 'NONE', *, *, #331, .T. ) ;
#282 = ORIENTED_EDGE ( 'NONE', *, *, #313, .F. ) ;
#283 = PERSON_AND_ORGANIZATION ( #234, #189 ) ;
#284 = ORIENTED_EDGE ( 'NONE', *, *, #241, .F. ) ;
#285 = AXIS2_PLACEMENT_3D ( 'NONE', #71, #267, #49 ) ;
#286 = ADVANCED_FACE ( 'NONE', ( #272, #5 ), #135, .F. ) ;
#287 = DIRECTION ( 'NONE',  ( 0.0000000000000000000, 1.000000000000000000, 0.0000000000000000000 ) ) ;
#288 = APPROVAL_PERSON_ORGANIZATION ( #271, #160, #328 ) ;
#289 = DIRECTION ( 'NONE',  ( -3.491481338843133355E-15, 1.224646799147353207E-16, -1.000000000000000000 ) ) ;
#290 = CYLINDRICAL_SURFACE ( 'NONE', #166, 2.950000000000000178 ) ;
#291 = CARTESIAN_POINT ( 'NONE',  ( 0.0000000000000000000, 0.0000000000000000000, 0.0000000000000000000 ) ) ;
#292 = AXIS2_PLACEMENT_3D ( 'NONE', #145, #230, #339 ) ;
#293 = CARTESIAN_POINT ( 'NONE',  ( 1.899365848330664293E-13, 2.999999999999995559, 54.39999999999999858 ) ) ;
#294 =( GEOMETRIC_REPRESENTATION_CONTEXT ( 3 ) GLOBAL_UNCERTAINTY_ASSIGNED_CONTEXT ( ( #75 ) ) GLOBAL_UNIT_ASSIGNED_CONTEXT ( ( #309, #64, #87 ) ) REPRESENTATION_CONTEXT ( 'NONE', 'WORKASPACE' ) );
#295 = CC_DESIGN_SECURITY_CLASSIFICATION ( #264, ( #120 ) ) ;
#296 = DIRECTION ( 'NONE',  ( 0.0000000000000000000, 1.000000000000000000, 0.0000000000000000000 ) ) ;
#297 = PLANE ( 'NONE',  #73 ) ;
#298 = ADVANCED_FACE ( 'NONE', ( #104 ), #297, .F. ) ;
#299 = PERSON_AND_ORGANIZATION ( #234, #189 ) ;
#300 = CARTESIAN_POINT ( 'NONE',  ( 9.077851480992146724E-15, 0.8499999999999995337, 2.600000000000000089 ) ) ;
#301 = AXIS2_PLACEMENT_3D ( 'NONE', #123, #212, #124 ) ;
#302 = DATE_AND_TIME ( #248, #153 ) ;
#303 = DIRECTION ( 'NONE',  ( -3.491481338843133355E-15, 1.224646799147353207E-16, -1.000000000000000000 ) ) ;
#304 = DATE_AND_TIME ( #335, #78 ) ;
#305 = APPROVAL_ROLE ( '' ) ;
#306 = ORIENTED_EDGE ( 'NONE', *, *, #31, .F. ) ;
#307 = EDGE_CURVE ( 'NONE', #55, #55, #148, .T. ) ;
#308 = AXIS2_PLACEMENT_3D ( 'NONE', #30, #273, #131 ) ;
#309 =( LENGTH_UNIT ( ) NAMED_UNIT ( * ) SI_UNIT ( .MILLI., .METRE. ) );
#310 = ORIENTED_EDGE ( 'NONE', *, *, #307, .F. ) ;
#311 = COORDINATED_UNIVERSAL_TIME_OFFSET ( 1, 0, .AHEAD. ) ;
#312 = EDGE_LOOP ( 'NONE', ( #229 ) ) ;
#313 = EDGE_CURVE ( 'NONE', #194, #194, #109, .T. ) ;
#314 = ORIENTED_EDGE ( 'NONE', *, *, #128, .F. ) ;
#315 = AXIS2_PLACEMENT_3D ( 'NONE', #163, #165, #296 ) ;
#316 = ORIENTED_EDGE ( 'NONE', *, *, #128, .T. ) ;
#317 = FACE_OUTER_BOUND ( 'NONE', #111, .T. ) ;
#318 = FACE_BOUND ( 'NONE', #200, .T. ) ;
#319 = EDGE_CURVE ( 'NONE', #56, #56, #274, .T. ) ;
#320 = AXIS2_PLACEMENT_3D ( 'NONE', #266, #184, #321 ) ;
#321 = DIRECTION ( 'NONE',  ( 4.275831445896958607E-31, 1.000000000000000000, 1.224646799147353454E-16 ) ) ;
#322 = CARTESIAN_POINT ( 'NONE',  ( 0.0000000000000000000, 0.0000000000000000000, 0.0000000000000000000 ) ) ;
#323 = VERTEX_POINT ( 'NONE', #32 ) ;
#324 = VERTEX_POINT ( 'NONE', #193 ) ;
#325 = APPROVAL_PERSON_ORGANIZATION ( #89, #80, #138 ) ;
#326 = CARTESIAN_POINT ( 'NONE',  ( 1.899365848330664293E-13, -6.662078587361600895E-15, 54.39999999999999858 ) ) ;
#327 = CARTESIAN_POINT ( 'NONE',  ( 4.957903501157248733E-14, 2.999999999999993339, 14.19999999999999929 ) ) ;
#328 = APPROVAL_ROLE ( '' ) ;
#329 = DIRECTION ( 'NONE',  ( -3.491481338843133355E-15, 1.224646799147353207E-16, -1.000000000000000000 ) ) ;
#330 = CIRCLE ( 'NONE', #185, 2.999999999999995115 ) ;
#331 = EDGE_CURVE ( 'NONE', #250, #250, #340, .T. ) ;
#332 = ORIENTED_EDGE ( 'NONE', *, *, #319, .F. ) ;
#333 = EDGE_LOOP ( 'NONE', ( #43 ) ) ;
#334 = AXIS2_PLACEMENT_3D ( 'NONE', #164, #303, #9 ) ;
#335 = CALENDAR_DATE ( 2022, 11, 1 ) ;
#336 = EDGE_LOOP ( 'NONE', ( #90 ) ) ;
#337 = PERSON_AND_ORGANIZATION_ROLE ( 'creator' ) ;
#338 = EDGE_LOOP ( 'NONE', ( #332 ) ) ;
#339 = DIRECTION ( 'NONE',  ( -4.275831445896958607E-31, -1.000000000000000000, -1.224646799147353207E-16 ) ) ;
#340 = CIRCLE ( 'NONE', #262, 1.350000000000000089 ) ;
#341 = FACE_OUTER_BOUND ( 'NONE', #177, .T. ) ;
#342 = DIRECTION ( 'NONE',  ( 4.275831445896958607E-31, 1.000000000000000000, 1.224646799147352961E-16 ) ) ;
#343 = DIRECTION ( 'NONE',  ( -3.491481338843133355E-15, 1.224646799147353207E-16, -1.000000000000000000 ) ) ;
ENDSEC;
END-ISO-10303-21;
