ISO-10303-21;
HEADER;
FILE_DESCRIPTION (( 'STEP AP203' ),
    '1' );
FILE_NAME ('384649.step',
    '2022-01-11T10:23:06',
    ( '' ),
    ( '' ),
    'SwSTEP 2.0',
    'SolidWorks 2019',
    '' );
FILE_SCHEMA (( 'CONFIG_CONTROL_DESIGN' ));
ENDSEC;

DATA;
#1 = CARTESIAN_POINT ( 'NONE',  ( 2.137183397710479182E-32, 0.7999999999999996003, 6.121136532892404794E-18 ) ) ;
#2 = AXIS2_PLACEMENT_3D ( 'NONE', #6, #37, #216 ) ;
#3 = ORIENTED_EDGE ( 'NONE', *, *, #194, .F. ) ;
#4 = DIRECTION ( 'NONE',  ( 4.275831445896958607E-31, 1.000000000000000000, 1.224646799147353207E-16 ) ) ;
#5 = CC_DESIGN_APPROVAL ( #338, ( #249 ) ) ;
#6 = CARTESIAN_POINT ( 'NONE',  ( 1.291848095371959341E-14, -4.531193156845206201E-16, 3.700000000000000178 ) ) ;
#7 = DIRECTION ( 'NONE',  ( 3.491481338843133355E-15, -1.224646799147353207E-16, 1.000000000000000000 ) ) ;
#8 = DATE_AND_TIME ( #143, #97 ) ;
#9 = CARTESIAN_POINT ( 'NONE',  ( 4.199347119824069440E-14, -1.472932692375549069E-15, 12.02740817516578886 ) ) ;
#10 = DIRECTION ( 'NONE',  ( -4.275831445896958607E-31, -1.000000000000000000, -1.224646799147353207E-16 ) ) ;
#11 = AXIS2_PLACEMENT_3D ( 'NONE', #331, #308, #197 ) ;
#12 = APPLICATION_CONTEXT ( 'configuration controlled 3d designs of mechanical parts and assemblies' ) ;
#13 = DIRECTION ( 'NONE',  ( -4.275831445896958607E-31, -1.000000000000000000, -1.224646799147353207E-16 ) ) ;
#14 = FACE_OUTER_BOUND ( 'NONE', #30, .T. ) ;
#15 = PLANE ( 'NONE',  #88 ) ;
#16 = AXIS2_PLACEMENT_3D ( 'NONE', #110, #248, #138 ) ;
#17 = APPROVAL_PERSON_ORGANIZATION ( #59, #338, #85 ) ;
#18 = CARTESIAN_POINT ( 'NONE',  ( 1.437032053095455983E-14, -5.040429930175740613E-16, 4.115823381635492773 ) ) ;
#19 = VERTEX_POINT ( 'NONE', #154 ) ;
#20 = APPROVAL_STATUS ( 'not_yet_approved' ) ;
#21 = EDGE_LOOP ( 'NONE', ( #237 ) ) ;
#22 = EDGE_CURVE ( 'NONE', #199, #199, #326, .T. ) ;
#23 = CIRCLE ( 'NONE', #213, 0.9253640596059534706 ) ;
#24 = PERSON_AND_ORGANIZATION ( #247, #268 ) ;
#25 = ORIENTED_EDGE ( 'NONE', *, *, #117, .T. ) ;
#26 = PERSON_AND_ORGANIZATION ( #247, #268 ) ;
#27 = EDGE_LOOP ( 'NONE', ( #205 ) ) ;
#28 = PERSON_AND_ORGANIZATION_ROLE ( 'classification_officer' ) ;
#29 = ADVANCED_FACE ( 'NONE', ( #286, #272 ), #309, .F. ) ;
#30 = EDGE_LOOP ( 'NONE', ( #233 ) ) ;
#31 = CIRCLE ( 'NONE', #63, 0.8437047985323824495 ) ;
#32 =( NAMED_UNIT ( * ) PLANE_ANGLE_UNIT ( ) SI_UNIT ( $, .RADIAN. ) );
#33 = CIRCLE ( 'NONE', #119, 1.350000000000000311 ) ;
#34 = ORIENTED_EDGE ( 'NONE', *, *, #117, .F. ) ;
#35 = PRODUCT ( '384649', '384649', '', ( #210 ) ) ;
#36 = CARTESIAN_POINT ( 'NONE',  ( 1.571166602479409694E-14, -5.510910596163087583E-16, 4.499999999999999112 ) ) ;
#37 = DIRECTION ( 'NONE',  ( -3.491481338843133355E-15, 1.224646799147353207E-16, -1.000000000000000000 ) ) ;
#38 = DIRECTION ( 'NONE',  ( 0.0000000000000000000, 1.000000000000000000, 0.0000000000000000000 ) ) ;
#39 = DATE_TIME_ROLE ( 'classification_date' ) ;
#40 = FACE_OUTER_BOUND ( 'NONE', #54, .T. ) ;
#41 = FACE_BOUND ( 'NONE', #319, .T. ) ;
#42 = DIRECTION ( 'NONE',  ( -3.491481338843133355E-15, 1.224646799147353207E-16, -1.000000000000000000 ) ) ;
#43 = FACE_OUTER_BOUND ( 'NONE', #82, .T. ) ;
#44 = VERTEX_POINT ( 'NONE', #149 ) ;
#45 = FACE_OUTER_BOUND ( 'NONE', #340, .T. ) ;
#46 = CLOSED_SHELL ( 'NONE', ( #279, #136, #29, #246, #191, #107, #259, #74, #307, #83, #232 ) ) ;
#47 = LOCAL_TIME ( 11, 23, 6.000000000000000000, #130 ) ;
#48 = CARTESIAN_POINT ( 'NONE',  ( 1.571166602479409694E-14, -5.510910596163087583E-16, 4.499999999999999112 ) ) ;
#49 = PERSON_AND_ORGANIZATION ( #247, #268 ) ;
#50 = EDGE_CURVE ( 'NONE', #44, #44, #152, .T. ) ;
#51 = DATE_AND_TIME ( #234, #73 ) ;
#52 = EDGE_LOOP ( 'NONE', ( #240 ) ) ;
#53 = DATE_AND_TIME ( #339, #114 ) ;
#54 = EDGE_LOOP ( 'NONE', ( #156 ) ) ;
#55 = COORDINATED_UNIVERSAL_TIME_OFFSET ( 1, 0, .AHEAD. ) ;
#56 = ORIENTED_EDGE ( 'NONE', *, *, #173, .F. ) ;
#57 = CC_DESIGN_APPROVAL ( #242, ( #155 ) ) ;
#58 = EDGE_LOOP ( 'NONE', ( #204 ) ) ;
#59 = PERSON_AND_ORGANIZATION ( #247, #268 ) ;
#60 = CARTESIAN_POINT ( 'NONE',  ( 5.167392381487837366E-14, -1.812477262738082480E-15, 14.80000000000000071 ) ) ;
#61 = CC_DESIGN_PERSON_AND_ORGANIZATION_ASSIGNMENT ( #26, #128, ( #155 ) ) ;
#62 = DIRECTION ( 'NONE',  ( -3.491481338843133355E-15, 1.224646799147353207E-16, -1.000000000000000000 ) ) ;
#63 = AXIS2_PLACEMENT_3D ( 'NONE', #18, #118, #283 ) ;
#64 = CARTESIAN_POINT ( 'NONE',  ( -1.603473408473258747E-31, 5.624227617539897199E-33, -4.592530369944790370E-17 ) ) ;
#65 = CC_DESIGN_PERSON_AND_ORGANIZATION_ASSIGNMENT ( #184, #182, ( #312 ) ) ;
#66 = CARTESIAN_POINT ( 'NONE',  ( 1.571166602479410010E-14, -5.510910596163088569E-16, 4.500000000000000000 ) ) ;
#67 = FACE_OUTER_BOUND ( 'NONE', #208, .T. ) ;
#68 = DIRECTION ( 'NONE',  ( 4.275831445896958607E-31, 1.000000000000000000, 1.224646799147353207E-16 ) ) ;
#69 = DIRECTION ( 'NONE',  ( 0.0000000000000000000, 1.000000000000000000, 0.0000000000000000000 ) ) ;
#70 = CC_DESIGN_DATE_AND_TIME_ASSIGNMENT ( #324, #39, ( #249 ) ) ;
#71 = CARTESIAN_POINT ( 'NONE',  ( 4.199347119824069440E-14, 2.949999999999999289, 12.02740817516578886 ) ) ;
#72 = CYLINDRICAL_SURFACE ( 'NONE', #179, 3.000000000000000000 ) ;
#73 = LOCAL_TIME ( 11, 23, 6.000000000000000000, #55 ) ;
#74 = ADVANCED_FACE ( 'NONE', ( #195, #321 ), #84, .F. ) ;
#75 = CALENDAR_DATE ( 2022, 11, 1 ) ;
#76 = DIRECTION ( 'NONE',  ( -3.491481338843133355E-15, 1.224646799147353207E-16, -1.000000000000000000 ) ) ;
#77 = COORDINATED_UNIVERSAL_TIME_OFFSET ( 1, 0, .AHEAD. ) ;
#78 = ORIENTED_EDGE ( 'NONE', *, *, #122, .T. ) ;
#79 = AXIS2_PLACEMENT_3D ( 'NONE', #91, #277, #250 ) ;
#80 = APPLICATION_PROTOCOL_DEFINITION ( 'international standard', 'config_control_design', 1994, #292 ) ;
#81 = ORIENTED_EDGE ( 'NONE', *, *, #271, .T. ) ;
#82 = EDGE_LOOP ( 'NONE', ( #3 ) ) ;
#83 = ADVANCED_FACE ( 'NONE', ( #329, #137 ), #164, .T. ) ;
#84 = PLANE ( 'NONE',  #219 ) ;
#85 = APPROVAL_ROLE ( '' ) ;
#86 = CARTESIAN_POINT ( 'NONE',  ( 4.199347119824069440E-14, -1.472932692375549069E-15, 12.02740817516578886 ) ) ;
#87 = FACE_OUTER_BOUND ( 'NONE', #58, .T. ) ;
#88 = AXIS2_PLACEMENT_3D ( 'NONE', #176, #146, #13 ) ;
#89 = FACE_OUTER_BOUND ( 'NONE', #27, .T. ) ;
#90 = CARTESIAN_POINT ( 'NONE',  ( 5.167392381487837366E-14, 4.461785353419022825E-32, 14.80000000000000071 ) ) ;
#91 = CARTESIAN_POINT ( 'NONE',  ( 1.920314736363723472E-13, 1.799711739194220919E-32, 55.00000000000000000 ) ) ;
#92 = CONICAL_SURFACE ( 'NONE', #328, 0.9253640596059534706, 0.2094395102393076524 ) ;
#93 = DIRECTION ( 'NONE',  ( 4.275831445896958607E-31, 1.000000000000000000, 1.224646799147353207E-16 ) ) ;
#94 = VERTEX_POINT ( 'NONE', #306 ) ;
#95 = CYLINDRICAL_SURFACE ( 'NONE', #236, 2.950000000000001066 ) ;
#96 = DIRECTION ( 'NONE',  ( -3.491481338843133355E-15, 1.224646799147353207E-16, -1.000000000000000000 ) ) ;
#97 = LOCAL_TIME ( 11, 23, 6.000000000000000000, #141 ) ;
#98 = DIRECTION ( 'NONE',  ( 1.000000000000000000, 0.0000000000000000000, 0.0000000000000000000 ) ) ;
#99 = EDGE_LOOP ( 'NONE', ( #100 ) ) ;
#100 = ORIENTED_EDGE ( 'NONE', *, *, #22, .F. ) ;
#101 = CARTESIAN_POINT ( 'NONE',  ( 1.899365848330664293E-13, 2.999999999999995559, 54.39999999999999858 ) ) ;
#102 = EDGE_LOOP ( 'NONE', ( #267 ) ) ;
#103 = AXIS2_PLACEMENT_3D ( 'NONE', #270, #142, #4 ) ;
#104 = APPROVAL_DATE_TIME ( #53, #242 ) ;
#105 = VERTEX_POINT ( 'NONE', #101 ) ;
#106 = ORIENTED_EDGE ( 'NONE', *, *, #202, .F. ) ;
#107 = ADVANCED_FACE ( 'NONE', ( #41, #40 ), #221, .T. ) ;
#108 = DIRECTION ( 'NONE',  ( -3.491481338843133355E-15, 1.224646799147353207E-16, -1.000000000000000000 ) ) ;
#109 = LOCAL_TIME ( 11, 23, 6.000000000000000000, #77 ) ;
#110 = CARTESIAN_POINT ( 'NONE',  ( 5.167392381487837366E-14, -1.812477262738082480E-15, 14.80000000000000071 ) ) ;
#111 = DIRECTION ( 'NONE',  ( 4.331154975903749507E-31, 1.000000000000000000, 1.224646799147353207E-16 ) ) ;
#112 = FACE_BOUND ( 'NONE', #126, .T. ) ;
#113 = CLOSED_SHELL ( 'NONE', ( #186, #215, #209 ) ) ;
#114 = LOCAL_TIME ( 11, 23, 6.000000000000000000, #287 ) ;
#115 = DIRECTION ( 'NONE',  ( 0.0000000000000000000, 1.000000000000000000, 0.0000000000000000000 ) ) ;
#116 = FACE_OUTER_BOUND ( 'NONE', #102, .T. ) ;
#117 = EDGE_CURVE ( 'NONE', #253, #253, #33, .T. ) ;
#118 = DIRECTION ( 'NONE',  ( -3.491481338843133355E-15, 1.224646799147353207E-16, -1.000000000000000000 ) ) ;
#119 = AXIS2_PLACEMENT_3D ( 'NONE', #66, #297, #325 ) ;
#120 = CARTESIAN_POINT ( 'NONE',  ( 5.167392381487837366E-14, 2.949999999999999289, 14.80000000000000071 ) ) ;
#121 = VERTEX_POINT ( 'NONE', #71 ) ;
#122 = EDGE_CURVE ( 'NONE', #198, #198, #169, .T. ) ;
#123 = FACE_OUTER_BOUND ( 'NONE', #187, .T. ) ;
#124 = CIRCLE ( 'NONE', #243, 0.7999999999999996003 ) ;
#125 = APPROVAL_STATUS ( 'not_yet_approved' ) ;
#126 = EDGE_LOOP ( 'NONE', ( #106 ) ) ;
#127 = CC_DESIGN_PERSON_AND_ORGANIZATION_ASSIGNMENT ( #24, #228, ( #35 ) ) ;
#128 = PERSON_AND_ORGANIZATION_ROLE ( 'design_supplier' ) ;
#129 = ORIENTED_EDGE ( 'NONE', *, *, #147, .T. ) ;
#130 = COORDINATED_UNIVERSAL_TIME_OFFSET ( 1, 0, .AHEAD. ) ;
#131 = ORIENTED_EDGE ( 'NONE', *, *, #147, .F. ) ;
#132 = AXIS2_PLACEMENT_3D ( 'NONE', #299, #108, #38 ) ;
#133 = AXIS2_PLACEMENT_3D ( 'NONE', #301, #217, #111 ) ;
#134 = VERTEX_POINT ( 'NONE', #1 ) ;
#135 = EDGE_LOOP ( 'NONE', ( #263 ) ) ;
#136 = ADVANCED_FACE ( 'NONE', ( #89, #67 ), #241, .T. ) ;
#137 = FACE_BOUND ( 'NONE', #342, .T. ) ;
#138 = DIRECTION ( 'NONE',  ( 0.0000000000000000000, 1.000000000000000000, 0.0000000000000000000 ) ) ;
#139 = AXIS2_PLACEMENT_3D ( 'NONE', #60, #144, #300 ) ;
#140 = DIRECTION ( 'NONE',  ( 0.0000000000000000000, 1.000000000000000000, 0.0000000000000000000 ) ) ;
#141 = COORDINATED_UNIVERSAL_TIME_OFFSET ( 1, 0, .AHEAD. ) ;
#142 = DIRECTION ( 'NONE',  ( -3.491481338843133355E-15, 1.224646799147353207E-16, -1.000000000000000000 ) ) ;
#143 = CALENDAR_DATE ( 2022, 11, 1 ) ;
#144 = DIRECTION ( 'NONE',  ( -3.491481338843133355E-15, 1.224646799147353207E-16, -1.000000000000000000 ) ) ;
#145 = AXIS2_PLACEMENT_3D ( 'NONE', #64, #275, #245 ) ;
#146 = DIRECTION ( 'NONE',  ( 3.491481338843133355E-15, -1.224646799147353207E-16, 1.000000000000000000 ) ) ;
#147 = EDGE_CURVE ( 'NONE', #94, #94, #254, .T. ) ;
#148 = CYLINDRICAL_SURFACE ( 'NONE', #314, 0.7999999999999997113 ) ;
#149 = CARTESIAN_POINT ( 'NONE',  ( 1.291848095371959341E-14, 0.7999999999999996003, 3.700000000000000178 ) ) ;
#150 = APPROVAL ( #20, 'UNSPECIFIED' ) ;
#151 = DIRECTION ( 'NONE',  ( -3.491481338843133355E-15, 1.224646799147353207E-16, -1.000000000000000000 ) ) ;
#152 = CIRCLE ( 'NONE', #2, 0.8000000000000000444 ) ;
#153 = VERTEX_POINT ( 'NONE', #258 ) ;
#154 = CARTESIAN_POINT ( 'NONE',  ( 1.571166602479409694E-14, 0.9253640596059529155, 4.499999999999999112 ) ) ;
#155 = PRODUCT_DEFINITION_FORMATION_WITH_SPECIFIED_SOURCE ( 'ANY', '', #35, .NOT_KNOWN. ) ;
#156 = ORIENTED_EDGE ( 'NONE', *, *, #173, .T. ) ;
#157 = PRODUCT_RELATED_PRODUCT_CATEGORY ( 'detail', '', ( #35 ) ) ;
#158 = CARTESIAN_POINT ( 'NONE',  ( 1.437032053095455983E-14, 0.8437047985323820054, 4.115823381635492773 ) ) ;
#159 = ORIENTED_EDGE ( 'NONE', *, *, #177, .T. ) ;
#160 = CARTESIAN_POINT ( 'NONE',  ( 0.0000000000000000000, 0.0000000000000000000, 0.0000000000000000000 ) ) ;
#161 = ORIENTED_EDGE ( 'NONE', *, *, #252, .F. ) ;
#162 = CC_DESIGN_PERSON_AND_ORGANIZATION_ASSIGNMENT ( #290, #28, ( #249 ) ) ;
#163 = ORIENTED_EDGE ( 'NONE', *, *, #271, .F. ) ;
#164 = CONICAL_SURFACE ( 'NONE', #181, 2.400000000000003020, 0.7853981633974450594 ) ;
#165 = CIRCLE ( 'NONE', #139, 2.999999999999997335 ) ;
#166 = ORIENTED_EDGE ( 'NONE', *, *, #50, .F. ) ;
#167 = ADVANCED_BREP_SHAPE_REPRESENTATION ( '384649', ( #238, #235, #304 ), #212 ) ;
#168 = DIRECTION ( 'NONE',  ( -3.491481338843133355E-15, 1.224646799147353207E-16, -1.000000000000000000 ) ) ;
#169 = CIRCLE ( 'NONE', #16, 2.950000000000001066 ) ;
#170 = AXIS2_PLACEMENT_3D ( 'NONE', #226, #42, #69 ) ;
#171 = DIRECTION ( 'NONE',  ( -3.491481338843133355E-15, 1.224646799147353207E-16, -1.000000000000000000 ) ) ;
#172 = FACE_OUTER_BOUND ( 'NONE', #337, .T. ) ;
#173 = EDGE_CURVE ( 'NONE', #121, #121, #320, .T. ) ;
#174 = CIRCLE ( 'NONE', #343, 0.7999999999999999334 ) ;
#175 = CARTESIAN_POINT ( 'NONE',  ( 0.0000000000000000000, 0.0000000000000000000, 0.0000000000000000000 ) ) ;
#176 = CARTESIAN_POINT ( 'NONE',  ( 8.379555213223518475E-15, 5.999039130647424958E-33, 2.399999999999999911 ) ) ;
#177 = EDGE_CURVE ( 'NONE', #334, #334, #174, .T. ) ;
#178 = DIRECTION ( 'NONE',  ( 4.275831445896959482E-31, 1.000000000000000000, 1.224646799147353207E-16 ) ) ;
#179 = AXIS2_PLACEMENT_3D ( 'NONE', #280, #225, #178 ) ;
#180 = CARTESIAN_POINT ( 'NONE',  ( 8.379555213223518475E-15, 0.7999999999999996003, 2.399999999999999911 ) ) ;
#181 = AXIS2_PLACEMENT_3D ( 'NONE', #244, #168, #274 ) ;
#182 = PERSON_AND_ORGANIZATION_ROLE ( 'creator' ) ;
#183 = DIRECTION ( 'NONE',  ( 0.0000000000000000000, 1.000000000000000000, 0.0000000000000000000 ) ) ;
#184 = PERSON_AND_ORGANIZATION ( #247, #268 ) ;
#185 = SECURITY_CLASSIFICATION_LEVEL ( 'unclassified' ) ;
#186 = ADVANCED_FACE ( 'NONE', ( #87 ), #192, .F. ) ;
#187 = EDGE_LOOP ( 'NONE', ( #161 ) ) ;
#188 = DIRECTION ( 'NONE',  ( 3.491481338843133355E-15, -1.224646799147353207E-16, 1.000000000000000000 ) ) ;
#189 = APPROVAL_DATE_TIME ( #8, #338 ) ;
#190 = CARTESIAN_POINT ( 'NONE',  ( 8.379555213223518475E-15, -2.939152317953647106E-16, 2.399999999999999911 ) ) ;
#191 = ADVANCED_FACE ( 'NONE', ( #112, #218 ), #211, .F. ) ;
#192 = PLANE ( 'NONE',  #145 ) ;
#193 = DIRECTION ( 'NONE',  ( 3.491481338843133355E-15, -1.224646799147353207E-16, 1.000000000000000000 ) ) ;
#194 = EDGE_CURVE ( 'NONE', #153, #153, #165, .T. ) ;
#195 = FACE_BOUND ( 'NONE', #316, .T. ) ;
#196 = DIRECTION ( 'NONE',  ( 0.0000000000000000000, -1.000000000000000000, 0.0000000000000000000 ) ) ;
#197 = DIRECTION ( 'NONE',  ( -4.275831445896958607E-31, -1.000000000000000000, -1.224646799147353207E-16 ) ) ;
#198 = VERTEX_POINT ( 'NONE', #120 ) ;
#199 = VERTEX_POINT ( 'NONE', #224 ) ;
#200 = APPROVAL_PERSON_ORGANIZATION ( #293, #242, #317 ) ;
#201 = DIRECTION ( 'NONE',  ( 4.275831445896958607E-31, 1.000000000000000000, 1.224646799147353207E-16 ) ) ;
#202 = EDGE_CURVE ( 'NONE', #19, #19, #23, .T. ) ;
#203 = APPROVAL_ROLE ( '' ) ;
#204 = ORIENTED_EDGE ( 'NONE', *, *, #252, .T. ) ;
#205 = ORIENTED_EDGE ( 'NONE', *, *, #177, .F. ) ;
#206 = DESIGN_CONTEXT ( 'detailed design', #12, 'design' ) ;
#207 = DATE_AND_TIME ( #75, #109 ) ;
#208 = EDGE_LOOP ( 'NONE', ( #313 ) ) ;
#209 = ADVANCED_FACE ( 'NONE', ( #281 ), #251, .T. ) ;
#210 = MECHANICAL_CONTEXT ( 'NONE', #292, 'mechanical' ) ;
#211 = PLANE ( 'NONE',  #336 ) ;
#212 =( GEOMETRIC_REPRESENTATION_CONTEXT ( 3 ) GLOBAL_UNCERTAINTY_ASSIGNED_CONTEXT ( ( #289 ) ) GLOBAL_UNIT_ASSIGNED_CONTEXT ( ( #285, #32, #341 ) ) REPRESENTATION_CONTEXT ( 'NONE', 'WORKASPACE' ) );
#213 = AXIS2_PLACEMENT_3D ( 'NONE', #36, #276, #115 ) ;
#214 = APPROVAL_STATUS ( 'not_yet_approved' ) ;
#215 = ADVANCED_FACE ( 'NONE', ( #123, #116 ), #148, .T. ) ;
#216 = DIRECTION ( 'NONE',  ( 0.0000000000000000000, 1.000000000000000000, 0.0000000000000000000 ) ) ;
#217 = DIRECTION ( 'NONE',  ( -3.491481338843133355E-15, 1.224646799147353207E-16, -1.000000000000000000 ) ) ;
#218 = FACE_OUTER_BOUND ( 'NONE', #318, .T. ) ;
#219 = AXIS2_PLACEMENT_3D ( 'NONE', #90, #188, #10 ) ;
#220 = CC_DESIGN_APPROVAL ( #150, ( #312 ) ) ;
#221 = CONICAL_SURFACE ( 'NONE', #273, 2.950000000000000622, 0.2094395102393125374 ) ;
#222 = DIRECTION ( 'NONE',  ( 0.0000000000000000000, -1.000000000000000000, 0.0000000000000000000 ) ) ;
#223 = CARTESIAN_POINT ( 'NONE',  ( 0.0000000000000000000, 0.0000000000000000000, 0.0000000000000000000 ) ) ;
#224 = CARTESIAN_POINT ( 'NONE',  ( 8.379555213223518475E-15, 0.7999999999999996003, 2.399999999999999911 ) ) ;
#225 = DIRECTION ( 'NONE',  ( -3.491481338843133355E-15, 1.224646799147353207E-16, -1.000000000000000000 ) ) ;
#226 = CARTESIAN_POINT ( 'NONE',  ( 1.899365848330664293E-13, -6.662078587361600895E-15, 54.39999999999999858 ) ) ;
#227 = PLANE ( 'NONE',  #79 ) ;
#228 = PERSON_AND_ORGANIZATION_ROLE ( 'design_owner' ) ;
#229 = EDGE_LOOP ( 'NONE', ( #131 ) ) ;
#230 = EDGE_LOOP ( 'NONE', ( #56 ) ) ;
#231 = PERSON_AND_ORGANIZATION ( #247, #268 ) ;
#232 = ADVANCED_FACE ( 'NONE', ( #332 ), #227, .F. ) ;
#233 = ORIENTED_EDGE ( 'NONE', *, *, #202, .T. ) ;
#234 = CALENDAR_DATE ( 2022, 11, 1 ) ;
#235 = MANIFOLD_SOLID_BREP ( 'Corps-Déplacer/Copier1[2]', #113 ) ;
#236 = AXIS2_PLACEMENT_3D ( 'NONE', #175, #96, #93 ) ;
#237 = ORIENTED_EDGE ( 'NONE', *, *, #330, .F. ) ;
#238 = MANIFOLD_SOLID_BREP ( 'Corps-Déplacer/Copier1[1]', #46 ) ;
#239 = VERTEX_POINT ( 'NONE', #158 ) ;
#240 = ORIENTED_EDGE ( 'NONE', *, *, #194, .T. ) ;
#241 = CYLINDRICAL_SURFACE ( 'NONE', #103, 0.7999999999999999334 ) ;
#242 = APPROVAL ( #125, 'UNSPECIFIED' ) ;
#243 = AXIS2_PLACEMENT_3D ( 'NONE', #302, #305, #68 ) ;
#244 = CARTESIAN_POINT ( 'NONE',  ( 1.920314736363723472E-13, -6.735557395310442615E-15, 55.00000000000000000 ) ) ;
#245 = DIRECTION ( 'NONE',  ( -4.275831445896958607E-31, -1.000000000000000000, -1.224646799147353207E-16 ) ) ;
#246 = ADVANCED_FACE ( 'NONE', ( #335, #14 ), #92, .T. ) ;
#247 = PERSON ( 'UNSPECIFIED', 'UNSPECIFIED', 'UNSPECIFIED', ('UNSPECIFIED'), ('UNSPECIFIED'), ('UNSPECIFIED') ) ;
#248 = DIRECTION ( 'NONE',  ( -3.491481338843133355E-15, 1.224646799147353207E-16, -1.000000000000000000 ) ) ;
#249 = SECURITY_CLASSIFICATION ( '', '', #185 ) ;
#250 = DIRECTION ( 'NONE',  ( 4.275831445896958607E-31, 1.000000000000000000, 1.224646799147353207E-16 ) ) ;
#251 = PLANE ( 'NONE',  #11 ) ;
#252 = EDGE_CURVE ( 'NONE', #134, #134, #124, .T. ) ;
#253 = VERTEX_POINT ( 'NONE', #257 ) ;
#254 = CIRCLE ( 'NONE', #132, 2.400000000000003020 ) ;
#255 = CIRCLE ( 'NONE', #170, 3.000000000000002220 ) ;
#256 = AXIS2_PLACEMENT_3D ( 'NONE', #311, #76, #183 ) ;
#257 = CARTESIAN_POINT ( 'NONE',  ( 1.571166602479410010E-14, 1.349999999999999645, 4.500000000000000000 ) ) ;
#258 = CARTESIAN_POINT ( 'NONE',  ( 5.167392381487837366E-14, 2.999999999999995559, 14.80000000000000071 ) ) ;
#259 = ADVANCED_FACE ( 'NONE', ( #310, #172 ), #95, .T. ) ;
#260 = APPLICATION_PROTOCOL_DEFINITION ( 'international standard', 'config_control_design', 1994, #12 ) ;
#261 = APPROVAL_PERSON_ORGANIZATION ( #49, #150, #203 ) ;
#262 = DATE_TIME_ROLE ( 'creation_date' ) ;
#263 = ORIENTED_EDGE ( 'NONE', *, *, #330, .T. ) ;
#264 = PRODUCT_DEFINITION_SHAPE ( 'NONE', 'NONE',  #312 ) ;
#265 = PERSON_AND_ORGANIZATION_ROLE ( 'creator' ) ;
#266 = EDGE_LOOP ( 'NONE', ( #81 ) ) ;
#267 = ORIENTED_EDGE ( 'NONE', *, *, #22, .T. ) ;
#268 = ORGANIZATION ( 'UNSPECIFIED', 'UNSPECIFIED', '' ) ;
#269 = EDGE_LOOP ( 'NONE', ( #166 ) ) ;
#270 = CARTESIAN_POINT ( 'NONE',  ( 0.0000000000000000000, 0.0000000000000000000, 0.0000000000000000000 ) ) ;
#271 = EDGE_CURVE ( 'NONE', #105, #105, #255, .T. ) ;
#272 = FACE_OUTER_BOUND ( 'NONE', #269, .T. ) ;
#273 = AXIS2_PLACEMENT_3D ( 'NONE', #9, #7, #222 ) ;
#274 = DIRECTION ( 'NONE',  ( 0.0000000000000000000, 1.000000000000000000, 0.0000000000000000000 ) ) ;
#275 = DIRECTION ( 'NONE',  ( 3.491481338843133355E-15, -1.224646799147353207E-16, 1.000000000000000000 ) ) ;
#276 = DIRECTION ( 'NONE',  ( -3.491481338843133355E-15, 1.224646799147353207E-16, -1.000000000000000000 ) ) ;
#277 = DIRECTION ( 'NONE',  ( -3.491481338843133355E-15, 1.224646799147353207E-16, -1.000000000000000000 ) ) ;
#278 = DIRECTION ( 'NONE',  ( 3.491481338843133355E-15, -1.224646799147353207E-16, 1.000000000000000000 ) ) ;
#279 = ADVANCED_FACE ( 'NONE', ( #45 ), #15, .F. ) ;
#280 = CARTESIAN_POINT ( 'NONE',  ( 0.0000000000000000000, 0.0000000000000000000, 0.0000000000000000000 ) ) ;
#281 = FACE_OUTER_BOUND ( 'NONE', #99, .T. ) ;
#282 = AXIS2_PLACEMENT_3D ( 'NONE', #86, #62, #323 ) ;
#283 = DIRECTION ( 'NONE',  ( 0.0000000000000000000, 1.000000000000000000, 0.0000000000000000000 ) ) ;
#284 = DIRECTION ( 'NONE',  ( 0.0000000000000000000, 0.0000000000000000000, 1.000000000000000000 ) ) ;
#285 =( LENGTH_UNIT ( ) NAMED_UNIT ( * ) SI_UNIT ( .MILLI., .METRE. ) );
#286 = FACE_OUTER_BOUND ( 'NONE', #135, .T. ) ;
#287 = COORDINATED_UNIVERSAL_TIME_OFFSET ( 1, 0, .AHEAD. ) ;
#288 = ORIENTED_EDGE ( 'NONE', *, *, #122, .F. ) ;
#289 = UNCERTAINTY_MEASURE_WITH_UNIT (LENGTH_MEASURE( 1.000000000000000082E-05 ), #285, 'distance_accuracy_value', 'NONE');
#290 = PERSON_AND_ORGANIZATION ( #247, #268 ) ;
#291 = EDGE_LOOP ( 'NONE', ( #163 ) ) ;
#292 = APPLICATION_CONTEXT ( 'configuration controlled 3d designs of mechanical parts and assemblies' ) ;
#293 = PERSON_AND_ORGANIZATION ( #247, #268 ) ;
#294 = CC_DESIGN_SECURITY_CLASSIFICATION ( #249, ( #155 ) ) ;
#295 = SHAPE_DEFINITION_REPRESENTATION ( #264, #167 ) ;
#296 = DIRECTION ( 'NONE',  ( -4.275831445896958607E-31, -1.000000000000000000, -1.224646799147353207E-16 ) ) ;
#297 = DIRECTION ( 'NONE',  ( -3.491481338843133355E-15, 1.224646799147353207E-16, -1.000000000000000000 ) ) ;
#298 = CC_DESIGN_PERSON_AND_ORGANIZATION_ASSIGNMENT ( #231, #265, ( #155 ) ) ;
#299 = CARTESIAN_POINT ( 'NONE',  ( 1.920314736363723472E-13, -6.735557395310442615E-15, 55.00000000000000000 ) ) ;
#300 = DIRECTION ( 'NONE',  ( 0.0000000000000000000, 1.000000000000000000, 0.0000000000000000000 ) ) ;
#301 = CARTESIAN_POINT ( 'NONE',  ( 1.291848095371959184E-14, -4.336808689942017736E-16, 3.699999999999999734 ) ) ;
#302 = CARTESIAN_POINT ( 'NONE',  ( -3.206946816946517495E-31, 1.124845523507979440E-32, -9.185060739889580741E-17 ) ) ;
#303 = CC_DESIGN_DATE_AND_TIME_ASSIGNMENT ( #51, #262, ( #312 ) ) ;
#304 = AXIS2_PLACEMENT_3D ( 'NONE', #160, #284, #98 ) ;
#305 = DIRECTION ( 'NONE',  ( -3.491481338843133355E-15, 1.224646799147353207E-16, -1.000000000000000000 ) ) ;
#306 = CARTESIAN_POINT ( 'NONE',  ( 1.920314736363723472E-13, 2.399999999999995914, 55.00000000000000000 ) ) ;
#307 = ADVANCED_FACE ( 'NONE', ( #43, #333 ), #72, .T. ) ;
#308 = DIRECTION ( 'NONE',  ( 3.491481338843133355E-15, -1.224646799147353207E-16, 1.000000000000000000 ) ) ;
#309 = TOROIDAL_SURFACE ( 'NONE', #133, 2.799999999999999822, 2.000000000000000000 ) ;
#310 = FACE_OUTER_BOUND ( 'NONE', #230, .T. ) ;
#311 = CARTESIAN_POINT ( 'NONE',  ( 8.379555213223518475E-15, -2.939152317953647106E-16, 2.399999999999999911 ) ) ;
#312 = PRODUCT_DEFINITION ( 'UNKNOWN', '', #155, #206 ) ;
#313 = ORIENTED_EDGE ( 'NONE', *, *, #50, .T. ) ;
#314 = AXIS2_PLACEMENT_3D ( 'NONE', #223, #151, #201 ) ;
#315 = APPROVAL_DATE_TIME ( #207, #150 ) ;
#316 = EDGE_LOOP ( 'NONE', ( #288 ) ) ;
#317 = APPROVAL_ROLE ( '' ) ;
#318 = EDGE_LOOP ( 'NONE', ( #25 ) ) ;
#319 = EDGE_LOOP ( 'NONE', ( #34 ) ) ;
#320 = CIRCLE ( 'NONE', #282, 2.950000000000000622 ) ;
#321 = FACE_OUTER_BOUND ( 'NONE', #52, .T. ) ;
#322 = CALENDAR_DATE ( 2022, 11, 1 ) ;
#323 = DIRECTION ( 'NONE',  ( 0.0000000000000000000, 1.000000000000000000, 0.0000000000000000000 ) ) ;
#324 = DATE_AND_TIME ( #322, #47 ) ;
#325 = DIRECTION ( 'NONE',  ( 0.0000000000000000000, 1.000000000000000000, 0.0000000000000000000 ) ) ;
#326 = CIRCLE ( 'NONE', #256, 0.7999999999999999334 ) ;
#327 = CARTESIAN_POINT ( 'NONE',  ( 1.571166602479409694E-14, 1.706249753755612507E-32, 4.499999999999999112 ) ) ;
#328 = AXIS2_PLACEMENT_3D ( 'NONE', #48, #278, #196 ) ;
#329 = FACE_OUTER_BOUND ( 'NONE', #291, .T. ) ;
#330 = EDGE_CURVE ( 'NONE', #239, #239, #31, .T. ) ;
#331 = CARTESIAN_POINT ( 'NONE',  ( 8.379555213223518475E-15, 5.999039130647424958E-33, 2.399999999999999911 ) ) ;
#332 = FACE_OUTER_BOUND ( 'NONE', #229, .T. ) ;
#333 = FACE_OUTER_BOUND ( 'NONE', #266, .T. ) ;
#334 = VERTEX_POINT ( 'NONE', #180 ) ;
#335 = FACE_BOUND ( 'NONE', #21, .T. ) ;
#336 = AXIS2_PLACEMENT_3D ( 'NONE', #327, #193, #296 ) ;
#337 = EDGE_LOOP ( 'NONE', ( #78 ) ) ;
#338 = APPROVAL ( #214, 'UNSPECIFIED' ) ;
#339 = CALENDAR_DATE ( 2022, 11, 1 ) ;
#340 = EDGE_LOOP ( 'NONE', ( #159 ) ) ;
#341 =( NAMED_UNIT ( * ) SI_UNIT ( $, .STERADIAN. ) SOLID_ANGLE_UNIT ( ) );
#342 = EDGE_LOOP ( 'NONE', ( #129 ) ) ;
#343 = AXIS2_PLACEMENT_3D ( 'NONE', #190, #171, #140 ) ;
ENDSEC;
END-ISO-10303-21;
