ISO-10303-21;
HEADER;
FILE_DESCRIPTION (( 'STEP AP203' ),
    '1' );
FILE_NAME ('384648.step',
    '2021-12-13T13:56:14',
    ( '' ),
    ( '' ),
    'SwSTEP 2.0',
    'SolidWorks 2019',
    '' );
FILE_SCHEMA (( 'CONFIG_CONTROL_DESIGN' ));
ENDSEC;

DATA;
#1 = PERSON ( 'UNSPECIFIED', 'UNSPECIFIED', 'UNSPECIFIED', ('UNSPECIFIED'), ('UNSPECIFIED'), ('UNSPECIFIED') ) ;
#2 = FACE_BOUND ( 'NONE', #66, .T. ) ;
#3 = CARTESIAN_POINT ( 'NONE',  ( 2.234548056859605347E-13, -7.837739514543060526E-15, 64.00000000000000000 ) ) ;
#4 = DIRECTION ( 'NONE',  ( -3.491481338843133355E-15, 1.239175553629613578E-16, -1.000000000000000000 ) ) ;
#5 = PERSON_AND_ORGANIZATION ( #1, #159 ) ;
#6 = DIRECTION ( 'NONE',  ( 0.0000000000000000000, 1.000000000000000000, 0.0000000000000000000 ) ) ;
#7 = CARTESIAN_POINT ( 'NONE',  ( 3.072503578181957984E-14, -9.974904585075945609E-16, 8.800000000000000711 ) ) ;
#8 = PERSON_AND_ORGANIZATION_ROLE ( 'creator' ) ;
#9 = FACE_OUTER_BOUND ( 'NONE', #60, .T. ) ;
#10 = APPROVAL_STATUS ( 'not_yet_approved' ) ;
#11 = ADVANCED_FACE ( 'NONE', ( #67, #90 ), #281, .T. ) ;
#12 = CARTESIAN_POINT ( 'NONE',  ( 6.598899730413522673E-14, 3.999999999999993339, 18.89999999999999858 ) ) ;
#13 = ORIENTED_EDGE ( 'NONE', *, *, #294, .F. ) ;
#14 = CC_DESIGN_APPROVAL ( #44, ( #41 ) ) ;
#15 = PRODUCT_DEFINITION ( 'UNKNOWN', '', #41, #167 ) ;
#16 = EDGE_LOOP ( 'NONE', ( #36 ) ) ;
#17 = ADVANCED_FACE ( 'NONE', ( #19 ), #231, .T. ) ;
#18 = DIRECTION ( 'NONE',  ( 4.275831445896958607E-31, 1.000000000000000000, 1.224646799147353207E-16 ) ) ;
#19 = FACE_OUTER_BOUND ( 'NONE', #47, .T. ) ;
#20 = CC_DESIGN_DATE_AND_TIME_ASSIGNMENT ( #120, #215, ( #252 ) ) ;
#21 = DIRECTION ( 'NONE',  ( -4.275831445896958607E-31, -1.000000000000000000, -1.224646799147353207E-16 ) ) ;
#22 = CARTESIAN_POINT ( 'NONE',  ( 2.094888803305880013E-14, 1.999999999999999112, 6.000000000000000000 ) ) ;
#23 = DIRECTION ( 'NONE',  ( -3.491481338843133355E-15, 1.239175553629613578E-16, -1.000000000000000000 ) ) ;
#24 = AXIS2_PLACEMENT_3D ( 'NONE', #126, #221, #237 ) ;
#25 = VERTEX_POINT ( 'NONE', #214 ) ;
#26 = CARTESIAN_POINT ( 'NONE',  ( 5.207900248524492193E-14, 3.949999999999998845, 14.91601914232220238 ) ) ;
#27 = MANIFOLD_SOLID_BREP ( 'Corps-Déplacer/Copier3[1]', #136 ) ;
#28 = PRODUCT ( '384648', '384648', '', ( #106 ) ) ;
#29 = DIRECTION ( 'NONE',  ( 1.000000000000000000, 0.0000000000000000000, 0.0000000000000000000 ) ) ;
#30 = DIRECTION ( 'NONE',  ( 0.0000000000000000000, 1.000000000000000000, 0.0000000000000000000 ) ) ;
#31 = COORDINATED_UNIVERSAL_TIME_OFFSET ( 1, 0, .AHEAD. ) ;
#32 = DIRECTION ( 'NONE',  ( 0.0000000000000000000, 1.000000000000000000, 0.0000000000000000000 ) ) ;
#33 = ADVANCED_FACE ( 'NONE', ( #113, #301 ), #94, .T. ) ;
#34 = APPROVAL_STATUS ( 'not_yet_approved' ) ;
#35 = CALENDAR_DATE ( 2021, 13, 12 ) ;
#36 = ORIENTED_EDGE ( 'NONE', *, *, #188, .T. ) ;
#37 = ORIENTED_EDGE ( 'NONE', *, *, #158, .F. ) ;
#38 = EDGE_LOOP ( 'NONE', ( #257 ) ) ;
#39 = ORIENTED_EDGE ( 'NONE', *, *, #269, .T. ) ;
#40 = EDGE_CURVE ( 'NONE', #48, #48, #207, .T. ) ;
#41 = PRODUCT_DEFINITION_FORMATION_WITH_SPECIFIED_SOURCE ( 'ANY', '', #28, .NOT_KNOWN. ) ;
#42 = CYLINDRICAL_SURFACE ( 'NONE', #69, 1.999999999999999556 ) ;
#43 = CARTESIAN_POINT ( 'NONE',  ( 6.598899730413522673E-14, 3.999999999999993339, 18.89999999999999858 ) ) ;
#44 = APPROVAL ( #10, 'UNSPECIFIED' ) ;
#45 = CARTESIAN_POINT ( 'NONE',  ( -5.344732560959162852E-31, 1.874679824365330475E-32, -1.530792246115823498E-16 ) ) ;
#46 = ORIENTED_EDGE ( 'NONE', *, *, #64, .F. ) ;
#47 = EDGE_LOOP ( 'NONE', ( #270 ) ) ;
#48 = VERTEX_POINT ( 'NONE', #144 ) ;
#49 = CIRCLE ( 'NONE', #300, 2.649999999999999911 ) ;
#50 = DIRECTION ( 'NONE',  ( -3.491481338843133355E-15, 1.239175553629613578E-16, -1.000000000000000000 ) ) ;
#51 = APPROVAL_DATE_TIME ( #263, #250 ) ;
#52 = DIRECTION ( 'NONE',  ( -3.491481338843133355E-15, 1.239175553629613578E-16, -1.000000000000000000 ) ) ;
#53 =( NAMED_UNIT ( * ) PLANE_ANGLE_UNIT ( ) SI_UNIT ( $, .RADIAN. ) );
#54 = EDGE_CURVE ( 'NONE', #235, #235, #49, .T. ) ;
#55 = DIRECTION ( 'NONE',  ( -4.275831445896958607E-31, -1.000000000000000000, -1.224646799147353207E-16 ) ) ;
#56 = PERSON_AND_ORGANIZATION ( #1, #159 ) ;
#57 = DIRECTION ( 'NONE',  ( 0.0000000000000000000, 1.000000000000000000, 0.0000000000000000000 ) ) ;
#58 = AXIS2_PLACEMENT_3D ( 'NONE', #266, #74, #55 ) ;
#59 = CARTESIAN_POINT ( 'NONE',  ( 0.0000000000000000000, 0.0000000000000000000, 0.0000000000000000000 ) ) ;
#60 = EDGE_LOOP ( 'NONE', ( #295 ) ) ;
#61 = EDGE_LOOP ( 'NONE', ( #272 ) ) ;
#62 = CIRCLE ( 'NONE', #134, 2.000000000000000000 ) ;
#63 = EDGE_LOOP ( 'NONE', ( #72 ) ) ;
#64 = EDGE_CURVE ( 'NONE', #25, #25, #171, .T. ) ;
#65 = PLANE ( 'NONE',  #125 ) ;
#66 = EDGE_LOOP ( 'NONE', ( #277 ) ) ;
#67 = FACE_OUTER_BOUND ( 'NONE', #38, .T. ) ;
#68 = DIRECTION ( 'NONE',  ( 0.0000000000000000000, 1.000000000000000000, 0.0000000000000000000 ) ) ;
#69 = AXIS2_PLACEMENT_3D ( 'NONE', #112, #137, #18 ) ;
#70 = CIRCLE ( 'NONE', #262, 3.999999999999995559 ) ;
#71 = CLOSED_SHELL ( 'NONE', ( #177, #140, #17 ) ) ;
#72 = ORIENTED_EDGE ( 'NONE', *, *, #291, .F. ) ;
#73 = DIRECTION ( 'NONE',  ( -3.491481338843133355E-15, 1.239175553629613578E-16, -1.000000000000000000 ) ) ;
#74 = DIRECTION ( 'NONE',  ( 3.491481338843133355E-15, -1.224646799147353207E-16, 1.000000000000000000 ) ) ;
#75 = CALENDAR_DATE ( 2021, 13, 12 ) ;
#76 = PRODUCT_DEFINITION_SHAPE ( 'NONE', 'NONE',  #15 ) ;
#77 = AXIS2_PLACEMENT_3D ( 'NONE', #227, #163, #232 ) ;
#78 = FACE_OUTER_BOUND ( 'NONE', #63, .T. ) ;
#79 = PERSON_AND_ORGANIZATION ( #1, #159 ) ;
#80 = EDGE_CURVE ( 'NONE', #193, #193, #182, .T. ) ;
#81 = DIRECTION ( 'NONE',  ( 4.326558321048404892E-31, 1.000000000000000000, 1.239175553629613578E-16 ) ) ;
#82 = DIRECTION ( 'NONE',  ( 3.491481338843133355E-15, -1.239175553629613578E-16, 1.000000000000000000 ) ) ;
#83 = PERSON_AND_ORGANIZATION_ROLE ( 'creator' ) ;
#84 = APPROVAL_PERSON_ORGANIZATION ( #199, #44, #129 ) ;
#85 =( LENGTH_UNIT ( ) NAMED_UNIT ( * ) SI_UNIT ( .MILLI., .METRE. ) );
#86 = ORIENTED_EDGE ( 'NONE', *, *, #269, .F. ) ;
#87 = AXIS2_PLACEMENT_3D ( 'NONE', #260, #267, #57 ) ;
#88 = ORIENTED_EDGE ( 'NONE', *, *, #204, .T. ) ;
#89 = DIRECTION ( 'NONE',  ( -3.491481338843133355E-15, 1.239175553629613578E-16, -1.000000000000000000 ) ) ;
#90 = FACE_BOUND ( 'NONE', #108, .T. ) ;
#91 = AXIS2_PLACEMENT_3D ( 'NONE', #59, #196, #29 ) ;
#92 = ORIENTED_EDGE ( 'NONE', *, *, #80, .F. ) ;
#93 = DIRECTION ( 'NONE',  ( 7.801235217771081471E-31, 1.000000000000000000, 2.195852501236464545E-16 ) ) ;
#94 = CYLINDRICAL_SURFACE ( 'NONE', #179, 3.950000000000000178 ) ;
#95 = CIRCLE ( 'NONE', #191, 3.950000000000001066 ) ;
#96 = AXIS2_PLACEMENT_3D ( 'NONE', #7, #52, #30 ) ;
#97 = PRODUCT_RELATED_PRODUCT_CATEGORY ( 'detail', '', ( #28 ) ) ;
#98 = DIRECTION ( 'NONE',  ( 0.0000000000000000000, 1.000000000000000000, 0.0000000000000000000 ) ) ;
#99 = CARTESIAN_POINT ( 'NONE',  ( 3.072503578181957984E-14, 2.649999999999999023, 8.800000000000000711 ) ) ;
#100 = APPROVAL_STATUS ( 'not_yet_approved' ) ;
#101 = CARTESIAN_POINT ( 'NONE',  ( 3.072503578181957984E-14, 1.999999999999999556, 8.800000000000000711 ) ) ;
#102 = ADVANCED_FACE ( 'NONE', ( #111 ), #65, .T. ) ;
#103 = CARTESIAN_POINT ( 'NONE',  ( 6.598899730413522673E-14, -2.249057767673504349E-15, 18.89999999999999858 ) ) ;
#104 = DATE_AND_TIME ( #287, #275 ) ;
#105 = FACE_OUTER_BOUND ( 'NONE', #16, .T. ) ;
#106 = MECHANICAL_CONTEXT ( 'NONE', #293, 'mechanical' ) ;
#107 = CC_DESIGN_APPROVAL ( #219, ( #15 ) ) ;
#108 = EDGE_LOOP ( 'NONE', ( #248 ) ) ;
#109 = ADVANCED_FACE ( 'NONE', ( #2, #280 ), #296, .T. ) ;
#110 = AXIS2_PLACEMENT_3D ( 'NONE', #185, #164, #229 ) ;
#111 = FACE_OUTER_BOUND ( 'NONE', #156, .T. ) ;
#112 = CARTESIAN_POINT ( 'NONE',  ( 0.0000000000000000000, 0.0000000000000000000, 0.0000000000000000000 ) ) ;
#113 = FACE_OUTER_BOUND ( 'NONE', #132, .T. ) ;
#114 = CC_DESIGN_SECURITY_CLASSIFICATION ( #252, ( #41 ) ) ;
#115 = CARTESIAN_POINT ( 'NONE',  ( 3.072503578181957984E-14, -9.974904585075945609E-16, 8.800000000000000711 ) ) ;
#116 = DIRECTION ( 'NONE',  ( -3.491481338843133355E-15, 1.239175553629613578E-16, -1.000000000000000000 ) ) ;
#117 = DIRECTION ( 'NONE',  ( -3.491481338843133355E-15, 1.239175553629613578E-16, -1.000000000000000000 ) ) ;
#118 = LOCAL_TIME ( 14, 56, 14.00000000000000000, #285 ) ;
#119 = FACE_OUTER_BOUND ( 'NONE', #157, .T. ) ;
#120 = DATE_AND_TIME ( #145, #161 ) ;
#121 = VERTEX_POINT ( 'NONE', #101 ) ;
#122 = PERSON_AND_ORGANIZATION ( #1, #159 ) ;
#123 = PLANE ( 'NONE',  #58 ) ;
#124 = AXIS2_PLACEMENT_3D ( 'NONE', #45, #259, #139 ) ;
#125 = AXIS2_PLACEMENT_3D ( 'NONE', #22, #116, #211 ) ;
#126 = CARTESIAN_POINT ( 'NONE',  ( 2.094888803305880013E-14, -6.505213034913026604E-16, 6.000000000000000000 ) ) ;
#127 = APPROVAL_ROLE ( '' ) ;
#128 = CARTESIAN_POINT ( 'NONE',  ( 2.094888803305880013E-14, 1.999999999999999112, 6.000000000000000000 ) ) ;
#129 = APPROVAL_ROLE ( '' ) ;
#130 = CC_DESIGN_PERSON_AND_ORGANIZATION_ASSIGNMENT ( #122, #292, ( #252 ) ) ;
#131 = EDGE_LOOP ( 'NONE', ( #88 ) ) ;
#132 = EDGE_LOOP ( 'NONE', ( #160 ) ) ;
#133 = MANIFOLD_SOLID_BREP ( 'Corps-Déplacer/Copier3[2]', #71 ) ;
#134 = AXIS2_PLACEMENT_3D ( 'NONE', #282, #212, #32 ) ;
#135 = EDGE_LOOP ( 'NONE', ( #46 ) ) ;
#136 = CLOSED_SHELL ( 'NONE', ( #228, #11, #33, #154, #184, #109, #284, #102, #273 ) ) ;
#137 = DIRECTION ( 'NONE',  ( -3.491481338843133355E-15, 1.224646799147353207E-16, -1.000000000000000000 ) ) ;
#138 = EDGE_LOOP ( 'NONE', ( #187 ) ) ;
#139 = DIRECTION ( 'NONE',  ( 4.275831445896958607E-31, 1.000000000000000000, 1.224646799147353207E-16 ) ) ;
#140 = ADVANCED_FACE ( 'NONE', ( #274, #253 ), #42, .T. ) ;
#141 = DIRECTION ( 'NONE',  ( 0.0000000000000000000, 1.000000000000000000, 0.0000000000000000000 ) ) ;
#142 = CARTESIAN_POINT ( 'NONE',  ( 2.094888803305880013E-14, 1.499759782661856239E-32, 6.000000000000000000 ) ) ;
#143 = APPLICATION_CONTEXT ( 'configuration controlled 3d designs of mechanical parts and assemblies' ) ;
#144 = CARTESIAN_POINT ( 'NONE',  ( 3.206930330834751734E-31, 1.999999999999999112, 9.185013521788819302E-17 ) ) ;
#145 = CALENDAR_DATE ( 2021, 13, 12 ) ;
#146 = AXIS2_PLACEMENT_3D ( 'NONE', #175, #73, #241 ) ;
#147 = FACE_BOUND ( 'NONE', #61, .T. ) ;
#148 = SHAPE_DEFINITION_REPRESENTATION ( #76, #251 ) ;
#149 = VERTEX_POINT ( 'NONE', #239 ) ;
#150 = CARTESIAN_POINT ( 'NONE',  ( 3.072503578181957984E-14, 2.649999999999999023, 8.800000000000000711 ) ) ;
#151 = COORDINATED_UNIVERSAL_TIME_OFFSET ( 1, 0, .AHEAD. ) ;
#152 = CIRCLE ( 'NONE', #146, 4.000000000000000888 ) ;
#153 = VERTEX_POINT ( 'NONE', #128 ) ;
#154 = ADVANCED_FACE ( 'NONE', ( #299, #254 ), #186, .T. ) ;
#155 = COORDINATED_UNIVERSAL_TIME_OFFSET ( 1, 0, .AHEAD. ) ;
#156 = EDGE_LOOP ( 'NONE', ( #247 ) ) ;
#157 = EDGE_LOOP ( 'NONE', ( #165 ) ) ;
#158 = EDGE_CURVE ( 'NONE', #170, #170, #95, .T. ) ;
#159 = ORGANIZATION ( 'UNSPECIFIED', 'UNSPECIFIED', '' ) ;
#160 = ORIENTED_EDGE ( 'NONE', *, *, #158, .T. ) ;
#161 = LOCAL_TIME ( 14, 56, 14.00000000000000000, #271 ) ;
#162 = EDGE_LOOP ( 'NONE', ( #39 ) ) ;
#163 = DIRECTION ( 'NONE',  ( -3.491481338843133355E-15, 1.239175553629613578E-16, -1.000000000000000000 ) ) ;
#164 = DIRECTION ( 'NONE',  ( 3.491481338843133355E-15, -1.239175553629613578E-16, 1.000000000000000000 ) ) ;
#165 = ORIENTED_EDGE ( 'NONE', *, *, #40, .T. ) ;
#166 = AXIS2_PLACEMENT_3D ( 'NONE', #205, #89, #206 ) ;
#167 = DESIGN_CONTEXT ( 'detailed design', #143, 'design' ) ;
#168 = DIRECTION ( 'NONE',  ( 3.491481338843133355E-15, -1.224646799147353207E-16, 1.000000000000000000 ) ) ;
#169 = CYLINDRICAL_SURFACE ( 'NONE', #24, 2.000000000000000000 ) ;
#170 = VERTEX_POINT ( 'NONE', #261 ) ;
#171 = CIRCLE ( 'NONE', #77, 3.200000000000001066 ) ;
#172 = DATE_AND_TIME ( #174, #230 ) ;
#173 = CYLINDRICAL_SURFACE ( 'NONE', #297, 3.999999999999998224 ) ;
#174 = CALENDAR_DATE ( 2021, 13, 12 ) ;
#175 = CARTESIAN_POINT ( 'NONE',  ( 2.206616206148860281E-13, -7.738605470252693215E-15, 63.20000000000000284 ) ) ;
#176 = PERSON_AND_ORGANIZATION ( #1, #159 ) ;
#177 = ADVANCED_FACE ( 'NONE', ( #119 ), #123, .F. ) ;
#178 = DIRECTION ( 'NONE',  ( -4.326558321048404892E-31, -1.000000000000000000, -1.239175553629613578E-16 ) ) ;
#179 = AXIS2_PLACEMENT_3D ( 'NONE', #190, #209, #93 ) ;
#180 = APPROVAL_PERSON_ORGANIZATION ( #56, #219, #127 ) ;
#181 = CC_DESIGN_PERSON_AND_ORGANIZATION_ASSIGNMENT ( #290, #83, ( #41 ) ) ;
#182 = CIRCLE ( 'NONE', #225, 3.950000000000000178 ) ;
#183 = EDGE_LOOP ( 'NONE', ( #86 ) ) ;
#184 = ADVANCED_FACE ( 'NONE', ( #218, #264 ), #173, .T. ) ;
#185 = CARTESIAN_POINT ( 'NONE',  ( 3.072503578181957984E-14, -9.974904585075945609E-16, 8.800000000000000711 ) ) ;
#186 = PLANE ( 'NONE',  #249 ) ;
#187 = ORIENTED_EDGE ( 'NONE', *, *, #40, .F. ) ;
#188 = EDGE_CURVE ( 'NONE', #121, #121, #197, .T. ) ;
#189 = CARTESIAN_POINT ( 'NONE',  ( 5.207900248524492193E-14, -1.755372599177237294E-15, 14.91601914232220238 ) ) ;
#190 = CARTESIAN_POINT ( 'NONE',  ( 2.094888803305880013E-14, -6.505213034913026604E-16, 6.000000000000000000 ) ) ;
#191 = AXIS2_PLACEMENT_3D ( 'NONE', #103, #192, #6 ) ;
#192 = DIRECTION ( 'NONE',  ( -3.491481338843133355E-15, 1.239175553629613578E-16, -1.000000000000000000 ) ) ;
#193 = VERTEX_POINT ( 'NONE', #26 ) ;
#194 = APPROVAL_ROLE ( '' ) ;
#195 = VERTEX_POINT ( 'NONE', #286 ) ;
#196 = DIRECTION ( 'NONE',  ( 0.0000000000000000000, 0.0000000000000000000, 1.000000000000000000 ) ) ;
#197 = CIRCLE ( 'NONE', #96, 2.000000000000000444 ) ;
#198 = CARTESIAN_POINT ( 'NONE',  ( 2.094888803305880013E-14, -6.505213034913026604E-16, 6.000000000000000000 ) ) ;
#199 = PERSON_AND_ORGANIZATION ( #1, #159 ) ;
#200 = FACE_OUTER_BOUND ( 'NONE', #135, .T. ) ;
#201 = APPROVAL_DATE_TIME ( #172, #44 ) ;
#202 = EDGE_LOOP ( 'NONE', ( #276 ) ) ;
#203 = SECURITY_CLASSIFICATION_LEVEL ( 'unclassified' ) ;
#204 = EDGE_CURVE ( 'NONE', #195, #195, #62, .T. ) ;
#205 = CARTESIAN_POINT ( 'NONE',  ( 2.206616206148860281E-13, -7.738605470252693215E-15, 63.20000000000000284 ) ) ;
#206 = DIRECTION ( 'NONE',  ( 0.0000000000000000000, 1.000000000000000000, 0.0000000000000000000 ) ) ;
#207 = CIRCLE ( 'NONE', #124, 1.999999999999999112 ) ;
#208 = LOCAL_TIME ( 14, 56, 14.00000000000000000, #151 ) ;
#209 = DIRECTION ( 'NONE',  ( -3.491481338843133355E-15, 1.239175553629613578E-16, -1.000000000000000000 ) ) ;
#210 = DIRECTION ( 'NONE',  ( -3.491481338843133355E-15, 1.239175553629613578E-16, -1.000000000000000000 ) ) ;
#211 = DIRECTION ( 'NONE',  ( 4.326558321048404892E-31, 1.000000000000000000, 1.239175553629613578E-16 ) ) ;
#212 = DIRECTION ( 'NONE',  ( -3.491481338843133355E-15, 1.224646799147353207E-16, -1.000000000000000000 ) ) ;
#213 =( GEOMETRIC_REPRESENTATION_CONTEXT ( 3 ) GLOBAL_UNCERTAINTY_ASSIGNED_CONTEXT ( ( #256 ) ) GLOBAL_UNIT_ASSIGNED_CONTEXT ( ( #85, #53, #240 ) ) REPRESENTATION_CONTEXT ( 'NONE', 'WORKASPACE' ) );
#214 = CARTESIAN_POINT ( 'NONE',  ( 2.234548056859605347E-13, 3.199999999999993072, 64.00000000000000000 ) ) ;
#215 = DATE_TIME_ROLE ( 'classification_date' ) ;
#216 = DIRECTION ( 'NONE',  ( 4.326558321048404892E-31, 1.000000000000000000, 1.239175553629613578E-16 ) ) ;
#217 = APPLICATION_PROTOCOL_DEFINITION ( 'international standard', 'config_control_design', 1994, #143 ) ;
#218 = FACE_OUTER_BOUND ( 'NONE', #162, .T. ) ;
#219 = APPROVAL ( #34, 'UNSPECIFIED' ) ;
#220 = AXIS2_PLACEMENT_3D ( 'NONE', #150, #117, #81 ) ;
#221 = DIRECTION ( 'NONE',  ( -3.491481338843133355E-15, 1.239175553629613578E-16, -1.000000000000000000 ) ) ;
#222 = DATE_AND_TIME ( #35, #208 ) ;
#223 = PERSON_AND_ORGANIZATION ( #1, #159 ) ;
#224 = EDGE_LOOP ( 'NONE', ( #13 ) ) ;
#225 = AXIS2_PLACEMENT_3D ( 'NONE', #189, #302, #68 ) ;
#226 = CIRCLE ( 'NONE', #87, 2.000000000000000000 ) ;
#227 = CARTESIAN_POINT ( 'NONE',  ( 2.234548056859605347E-13, -7.837739514543062104E-15, 64.00000000000000000 ) ) ;
#228 = ADVANCED_FACE ( 'NONE', ( #9, #147 ), #288, .T. ) ;
#229 = DIRECTION ( 'NONE',  ( 0.0000000000000000000, -1.000000000000000000, 0.0000000000000000000 ) ) ;
#230 = LOCAL_TIME ( 14, 56, 14.00000000000000000, #31 ) ;
#231 = PLANE ( 'NONE',  #244 ) ;
#232 = DIRECTION ( 'NONE',  ( 0.0000000000000000000, 1.000000000000000000, 0.0000000000000000000 ) ) ;
#233 = CARTESIAN_POINT ( 'NONE',  ( 6.598899730413522673E-14, -2.249057767673504349E-15, 18.89999999999999858 ) ) ;
#234 = CC_DESIGN_DATE_AND_TIME_ASSIGNMENT ( #222, #243, ( #15 ) ) ;
#235 = VERTEX_POINT ( 'NONE', #99 ) ;
#236 = AXIS2_PLACEMENT_3D ( 'NONE', #3, #82, #178 ) ;
#237 = DIRECTION ( 'NONE',  ( 0.0000000000000000000, 1.000000000000000000, 0.0000000000000000000 ) ) ;
#238 = PERSON_AND_ORGANIZATION_ROLE ( 'design_owner' ) ;
#239 = CARTESIAN_POINT ( 'NONE',  ( 2.206616206148860281E-13, 3.999999999999993339, 63.20000000000000284 ) ) ;
#240 =( NAMED_UNIT ( * ) SI_UNIT ( $, .STERADIAN. ) SOLID_ANGLE_UNIT ( ) );
#241 = DIRECTION ( 'NONE',  ( 0.0000000000000000000, 1.000000000000000000, 0.0000000000000000000 ) ) ;
#242 = APPROVAL_PERSON_ORGANIZATION ( #5, #250, #194 ) ;
#243 = DATE_TIME_ROLE ( 'creation_date' ) ;
#244 = AXIS2_PLACEMENT_3D ( 'NONE', #142, #168, #21 ) ;
#245 = VERTEX_POINT ( 'NONE', #12 ) ;
#246 = APPROVAL_DATE_TIME ( #104, #219 ) ;
#247 = ORIENTED_EDGE ( 'NONE', *, *, #291, .T. ) ;
#248 = ORIENTED_EDGE ( 'NONE', *, *, #54, .F. ) ;
#249 = AXIS2_PLACEMENT_3D ( 'NONE', #43, #4, #216 ) ;
#250 = APPROVAL ( #100, 'UNSPECIFIED' ) ;
#251 = ADVANCED_BREP_SHAPE_REPRESENTATION ( '384648', ( #27, #133, #91 ), #213 ) ;
#252 = SECURITY_CLASSIFICATION ( '', '', #203 ) ;
#253 = FACE_OUTER_BOUND ( 'NONE', #131, .T. ) ;
#254 = FACE_BOUND ( 'NONE', #298, .T. ) ;
#255 = EDGE_LOOP ( 'NONE', ( #92 ) ) ;
#256 = UNCERTAINTY_MEASURE_WITH_UNIT (LENGTH_MEASURE( 1.000000000000000082E-05 ), #85, 'distance_accuracy_value', 'NONE');
#257 = ORIENTED_EDGE ( 'NONE', *, *, #80, .T. ) ;
#258 = CC_DESIGN_PERSON_AND_ORGANIZATION_ASSIGNMENT ( #223, #265, ( #41 ) ) ;
#259 = DIRECTION ( 'NONE',  ( -3.491481338843133355E-15, 1.224646799147353207E-16, -1.000000000000000000 ) ) ;
#260 = CARTESIAN_POINT ( 'NONE',  ( 2.094888803305880013E-14, -6.505213034913026604E-16, 6.000000000000000000 ) ) ;
#261 = CARTESIAN_POINT ( 'NONE',  ( 6.598899730413522673E-14, 3.949999999999998845, 18.89999999999999858 ) ) ;
#262 = AXIS2_PLACEMENT_3D ( 'NONE', #233, #23, #98 ) ;
#263 = DATE_AND_TIME ( #75, #118 ) ;
#264 = FACE_OUTER_BOUND ( 'NONE', #224, .T. ) ;
#265 = PERSON_AND_ORGANIZATION_ROLE ( 'design_supplier' ) ;
#266 = CARTESIAN_POINT ( 'NONE',  ( -2.672366280479581426E-31, 9.373399121826652376E-33, -7.653961230579117490E-17 ) ) ;
#267 = DIRECTION ( 'NONE',  ( -3.491481338843133355E-15, 1.239175553629613578E-16, -1.000000000000000000 ) ) ;
#268 = APPLICATION_PROTOCOL_DEFINITION ( 'international standard', 'config_control_design', 1994, #293 ) ;
#269 = EDGE_CURVE ( 'NONE', #149, #149, #152, .T. ) ;
#270 = ORIENTED_EDGE ( 'NONE', *, *, #204, .F. ) ;
#271 = COORDINATED_UNIVERSAL_TIME_OFFSET ( 1, 0, .AHEAD. ) ;
#272 = ORIENTED_EDGE ( 'NONE', *, *, #188, .F. ) ;
#273 = ADVANCED_FACE ( 'NONE', ( #105, #78 ), #169, .T. ) ;
#274 = FACE_OUTER_BOUND ( 'NONE', #138, .T. ) ;
#275 = LOCAL_TIME ( 14, 56, 14.00000000000000000, #155 ) ;
#276 = ORIENTED_EDGE ( 'NONE', *, *, #294, .T. ) ;
#277 = ORIENTED_EDGE ( 'NONE', *, *, #64, .T. ) ;
#278 = CC_DESIGN_PERSON_AND_ORGANIZATION_ASSIGNMENT ( #79, #238, ( #28 ) ) ;
#279 = CC_DESIGN_APPROVAL ( #250, ( #252 ) ) ;
#280 = FACE_OUTER_BOUND ( 'NONE', #183, .T. ) ;
#281 = CONICAL_SURFACE ( 'NONE', #110, 2.649999999999999911, 0.2094395102393125929 ) ;
#282 = CARTESIAN_POINT ( 'NONE',  ( 2.094888803305880013E-14, -7.347880794884119736E-16, 6.000000000000000000 ) ) ;
#283 = DIRECTION ( 'NONE',  ( 7.703719777548946915E-31, 1.000000000000000000, 2.168404344971009854E-16 ) ) ;
#284 = ADVANCED_FACE ( 'NONE', ( #200 ), #289, .T. ) ;
#285 = COORDINATED_UNIVERSAL_TIME_OFFSET ( 1, 0, .AHEAD. ) ;
#286 = CARTESIAN_POINT ( 'NONE',  ( 2.094888803305880013E-14, 1.999999999999999112, 6.000000000000000000 ) ) ;
#287 = CALENDAR_DATE ( 2021, 13, 12 ) ;
#288 = PLANE ( 'NONE',  #220 ) ;
#289 = PLANE ( 'NONE',  #236 ) ;
#290 = PERSON_AND_ORGANIZATION ( #1, #159 ) ;
#291 = EDGE_CURVE ( 'NONE', #153, #153, #226, .T. ) ;
#292 = PERSON_AND_ORGANIZATION_ROLE ( 'classification_officer' ) ;
#293 = APPLICATION_CONTEXT ( 'configuration controlled 3d designs of mechanical parts and assemblies' ) ;
#294 = EDGE_CURVE ( 'NONE', #245, #245, #70, .T. ) ;
#295 = ORIENTED_EDGE ( 'NONE', *, *, #54, .T. ) ;
#296 = CONICAL_SURFACE ( 'NONE', #166, 4.000000000000000888, 0.7853981633974512766 ) ;
#297 = AXIS2_PLACEMENT_3D ( 'NONE', #198, #50, #283 ) ;
#298 = EDGE_LOOP ( 'NONE', ( #37 ) ) ;
#299 = FACE_OUTER_BOUND ( 'NONE', #202, .T. ) ;
#300 = AXIS2_PLACEMENT_3D ( 'NONE', #115, #210, #141 ) ;
#301 = FACE_OUTER_BOUND ( 'NONE', #255, .T. ) ;
#302 = DIRECTION ( 'NONE',  ( -3.491481338843133355E-15, 1.239175553629613578E-16, -1.000000000000000000 ) ) ;
#303 = CC_DESIGN_PERSON_AND_ORGANIZATION_ASSIGNMENT ( #176, #8, ( #15 ) ) ;
ENDSEC;
END-ISO-10303-21;
