ISO-10303-21;
HEADER;
FILE_DESCRIPTION (( 'STEP AP203' ),
    '1' );
FILE_NAME ('384646.step',
    '2021-12-13T13:56:13',
    ( '' ),
    ( '' ),
    'SwSTEP 2.0',
    'SolidWorks 2019',
    '' );
FILE_SCHEMA (( 'CONFIG_CONTROL_DESIGN' ));
ENDSEC;

DATA;
#1 = DIRECTION ( 'NONE',  ( -4.275831445896958607E-31, -1.000000000000000000, -1.224646799147353207E-16 ) ) ;
#2 = CARTESIAN_POINT ( 'NONE',  ( 4.888073874380386697E-14, -1.689132833221265366E-15, 14.00000000000000000 ) ) ;
#3 = CALENDAR_DATE ( 2021, 13, 12 ) ;
#4 = DIRECTION ( 'NONE',  ( 0.0000000000000000000, 1.000000000000000000, 0.0000000000000000000 ) ) ;
#5 = DIRECTION ( 'NONE',  ( -3.491481338843133355E-15, 1.230835259046140666E-16, -1.000000000000000000 ) ) ;
#6 = PERSON_AND_ORGANIZATION_ROLE ( 'creator' ) ;
#7 = CIRCLE ( 'NONE', #147, 1.250000000000000000 ) ;
#8 = LOCAL_TIME ( 14, 56, 13.00000000000000000, #52 ) ;
#9 = VERTEX_POINT ( 'NONE', #78 ) ;
#10 = APPROVAL_DATE_TIME ( #29, #39 ) ;
#11 = EDGE_CURVE ( 'NONE', #54, #54, #17, .T. ) ;
#12 = CARTESIAN_POINT ( 'NONE',  ( 1.745740669421566678E-14, 1.249999999999999556, 5.000000000000000000 ) ) ;
#13 = EDGE_CURVE ( 'NONE', #146, #146, #169, .T. ) ;
#14 = VERTEX_POINT ( 'NONE', #87 ) ;
#15 = ORIENTED_EDGE ( 'NONE', *, *, #57, .T. ) ;
#16 = DIRECTION ( 'NONE',  ( -3.491481338843133355E-15, 1.230835259046140666E-16, -1.000000000000000000 ) ) ;
#17 = CIRCLE ( 'NONE', #302, 2.399999999999999467 ) ;
#18 = CYLINDRICAL_SURFACE ( 'NONE', #249, 1.250000000000000222 ) ;
#19 = PRODUCT_DEFINITION ( 'UNKNOWN', '', #283, #172 ) ;
#20 = EDGE_CURVE ( 'NONE', #9, #9, #158, .T. ) ;
#21 = CARTESIAN_POINT ( 'NONE',  ( -4.275735514808344153E-31, 1.499726134565474076E-32, -1.224619323391562353E-16 ) ) ;
#22 = PRODUCT ( '384646', '384646', '', ( #102 ) ) ;
#23 = FACE_OUTER_BOUND ( 'NONE', #265, .T. ) ;
#24 = SHAPE_DEFINITION_REPRESENTATION ( #268, #145 ) ;
#25 = CARTESIAN_POINT ( 'NONE',  ( 1.326762908760390675E-14, 9.373498641636604575E-33, 3.799999999999999822 ) ) ;
#26 = DIRECTION ( 'NONE',  ( 0.0000000000000000000, 1.000000000000000000, 0.0000000000000000000 ) ) ;
#27 = DATE_AND_TIME ( #237, #83 ) ;
#28 = DIRECTION ( 'NONE',  ( 5.222860866134876548E-31, 1.000000000000000000, 1.470104640658311001E-16 ) ) ;
#29 = DATE_AND_TIME ( #222, #8 ) ;
#30 = PERSON_AND_ORGANIZATION ( #93, #120 ) ;
#31 = FACE_OUTER_BOUND ( 'NONE', #181, .T. ) ;
#32 = AXIS2_PLACEMENT_3D ( 'NONE', #255, #68, #161 ) ;
#33 = CARTESIAN_POINT ( 'NONE',  ( 1.069053792562852354E-31, 1.249999999999999556, 3.061891755426287241E-17 ) ) ;
#34 = EDGE_LOOP ( 'NONE', ( #205 ) ) ;
#35 = AXIS2_PLACEMENT_3D ( 'NONE', #232, #111, #258 ) ;
#36 = ORIENTED_EDGE ( 'NONE', *, *, #11, .T. ) ;
#37 =( GEOMETRIC_REPRESENTATION_CONTEXT ( 3 ) GLOBAL_UNCERTAINTY_ASSIGNED_CONTEXT ( ( #279 ) ) GLOBAL_UNIT_ASSIGNED_CONTEXT ( ( #207, #41, #108 ) ) REPRESENTATION_CONTEXT ( 'NONE', 'WORKASPACE' ) );
#38 = FACE_OUTER_BOUND ( 'NONE', #248, .T. ) ;
#39 = APPROVAL ( #264, 'UNSPECIFIED' ) ;
#40 = FACE_BOUND ( 'NONE', #90, .T. ) ;
#41 =( NAMED_UNIT ( * ) PLANE_ANGLE_UNIT ( ) SI_UNIT ( $, .RADIAN. ) );
#42 = FACE_OUTER_BOUND ( 'NONE', #125, .T. ) ;
#43 = EDGE_CURVE ( 'NONE', #285, #285, #272, .T. ) ;
#44 = DATE_TIME_ROLE ( 'classification_date' ) ;
#45 = CARTESIAN_POINT ( 'NONE',  ( 1.326762908760390675E-14, 1.249999999999999556, 3.799999999999999822 ) ) ;
#46 = PERSON_AND_ORGANIZATION ( #93, #120 ) ;
#47 = DIRECTION ( 'NONE',  ( -3.491481338843133355E-15, 1.230835259046140666E-16, -1.000000000000000000 ) ) ;
#48 = CARTESIAN_POINT ( 'NONE',  ( 3.922202660347611585E-14, 2.949999999999998845, 11.23363489505916490 ) ) ;
#49 = CARTESIAN_POINT ( 'NONE',  ( 4.888073874380386697E-14, 2.999999999999993339, 14.00000000000000000 ) ) ;
#50 = CC_DESIGN_PERSON_AND_ORGANIZATION_ASSIGNMENT ( #46, #188, ( #239 ) ) ;
#51 = DIRECTION ( 'NONE',  ( 5.135813185032633904E-31, 1.000000000000000000, 1.445602896647340642E-16 ) ) ;
#52 = COORDINATED_UNIVERSAL_TIME_OFFSET ( 1, 0, .AHEAD. ) ;
#53 = ADVANCED_FACE ( 'NONE', ( #157, #38 ), #18, .T. ) ;
#54 = VERTEX_POINT ( 'NONE', #244 ) ;
#55 = DIRECTION ( 'NONE',  ( 0.0000000000000000000, 1.000000000000000000, 0.0000000000000000000 ) ) ;
#56 = DATE_TIME_ROLE ( 'creation_date' ) ;
#57 = EDGE_CURVE ( 'NONE', #287, #287, #183, .T. ) ;
#58 = AXIS2_PLACEMENT_3D ( 'NONE', #185, #256, #134 ) ;
#59 = COORDINATED_UNIVERSAL_TIME_OFFSET ( 1, 0, .AHEAD. ) ;
#60 = ORIENTED_EDGE ( 'NONE', *, *, #43, .F. ) ;
#61 = DIRECTION ( 'NONE',  ( 0.0000000000000000000, 1.000000000000000000, 0.0000000000000000000 ) ) ;
#62 = AXIS2_PLACEMENT_3D ( 'NONE', #45, #170, #236 ) ;
#63 = ORIENTED_EDGE ( 'NONE', *, *, #246, .F. ) ;
#64 = ORIENTED_EDGE ( 'NONE', *, *, #13, .F. ) ;
#65 = DIRECTION ( 'NONE',  ( 0.0000000000000000000, 1.000000000000000000, 0.0000000000000000000 ) ) ;
#66 = CIRCLE ( 'NONE', #114, 2.999999999999998668 ) ;
#67 = CC_DESIGN_SECURITY_CLASSIFICATION ( #239, ( #283 ) ) ;
#68 = DIRECTION ( 'NONE',  ( -3.491481338843133355E-15, 1.224646799147353207E-16, -1.000000000000000000 ) ) ;
#69 = CARTESIAN_POINT ( 'NONE',  ( 1.899365848330664545E-13, -6.661707279767674574E-15, 54.40000000000000568 ) ) ;
#70 = PLANE ( 'NONE',  #230 ) ;
#71 = FACE_OUTER_BOUND ( 'NONE', #271, .T. ) ;
#72 = DIRECTION ( 'NONE',  ( -3.491481338843133355E-15, 1.230835259046140666E-16, -1.000000000000000000 ) ) ;
#73 = PERSON_AND_ORGANIZATION ( #93, #120 ) ;
#74 = PERSON_AND_ORGANIZATION ( #93, #120 ) ;
#75 = AXIS2_PLACEMENT_3D ( 'NONE', #262, #113, #194 ) ;
#76 = DIRECTION ( 'NONE',  ( -3.491481338843133355E-15, 1.230835259046140666E-16, -1.000000000000000000 ) ) ;
#77 = APPROVAL_STATUS ( 'not_yet_approved' ) ;
#78 = CARTESIAN_POINT ( 'NONE',  ( 4.888073874380386697E-14, 2.999999999999993339, 14.00000000000000000 ) ) ;
#79 = APPROVAL_DATE_TIME ( #149, #266 ) ;
#80 = EDGE_CURVE ( 'NONE', #14, #14, #66, .T. ) ;
#81 = DIRECTION ( 'NONE',  ( 0.0000000000000000000, -1.000000000000000000, 0.0000000000000000000 ) ) ;
#82 = CONICAL_SURFACE ( 'NONE', #257, 1.625000000000000000, 0.2094395102393125929 ) ;
#83 = LOCAL_TIME ( 14, 56, 13.00000000000000000, #280 ) ;
#84 = EDGE_CURVE ( 'NONE', #152, #152, #187, .T. ) ;
#85 = EDGE_LOOP ( 'NONE', ( #293 ) ) ;
#86 = CC_DESIGN_PERSON_AND_ORGANIZATION_ASSIGNMENT ( #245, #195, ( #22 ) ) ;
#87 = CARTESIAN_POINT ( 'NONE',  ( 1.899365848330664545E-13, 2.999999999999992450, 54.40000000000000568 ) ) ;
#88 = EDGE_LOOP ( 'NONE', ( #267 ) ) ;
#89 = EDGE_LOOP ( 'NONE', ( #227 ) ) ;
#90 = EDGE_LOOP ( 'NONE', ( #36 ) ) ;
#91 = DIRECTION ( 'NONE',  ( 0.0000000000000000000, 1.000000000000000000, 0.0000000000000000000 ) ) ;
#92 = APPROVAL_PERSON_ORGANIZATION ( #73, #39, #171 ) ;
#93 = PERSON ( 'UNSPECIFIED', 'UNSPECIFIED', 'UNSPECIFIED', ('UNSPECIFIED'), ('UNSPECIFIED'), ('UNSPECIFIED') ) ;
#94 = FACE_OUTER_BOUND ( 'NONE', #128, .T. ) ;
#95 = ADVANCED_FACE ( 'NONE', ( #42 ), #70, .F. ) ;
#96 = FACE_OUTER_BOUND ( 'NONE', #269, .T. ) ;
#97 = PERSON_AND_ORGANIZATION_ROLE ( 'design_supplier' ) ;
#98 = CARTESIAN_POINT ( 'NONE',  ( 1.326762908760390675E-14, -4.336808689942017736E-16, 3.799999999999999822 ) ) ;
#99 = COORDINATED_UNIVERSAL_TIME_OFFSET ( 1, 0, .AHEAD. ) ;
#100 = FACE_OUTER_BOUND ( 'NONE', #88, .T. ) ;
#101 = CARTESIAN_POINT ( 'NONE',  ( 1.899365848330664545E-13, -6.661707279767674574E-15, 54.40000000000000568 ) ) ;
#102 = MECHANICAL_CONTEXT ( 'NONE', #220, 'mechanical' ) ;
#103 = AXIS2_PLACEMENT_3D ( 'NONE', #240, #72, #28 ) ;
#104 = CC_DESIGN_PERSON_AND_ORGANIZATION_ASSIGNMENT ( #213, #97, ( #283 ) ) ;
#105 = CARTESIAN_POINT ( 'NONE',  ( 4.888073874380386697E-14, -1.689132833221265366E-15, 14.00000000000000000 ) ) ;
#106 = ADVANCED_FACE ( 'NONE', ( #164 ), #274, .T. ) ;
#107 = DIRECTION ( 'NONE',  ( 0.0000000000000000000, 1.000000000000000000, 0.0000000000000000000 ) ) ;
#108 =( NAMED_UNIT ( * ) SI_UNIT ( $, .STERADIAN. ) SOLID_ANGLE_UNIT ( ) );
#109 = CARTESIAN_POINT ( 'NONE',  ( 1.326762908760390675E-14, -4.336808689942017736E-16, 3.799999999999999822 ) ) ;
#110 = CIRCLE ( 'NONE', #179, 2.950000000000000178 ) ;
#111 = DIRECTION ( 'NONE',  ( 3.491481338843133355E-15, -1.230835259046140666E-16, 1.000000000000000000 ) ) ;
#112 = DIRECTION ( 'NONE',  ( 3.491481338843133355E-15, -1.224646799147353207E-16, 1.000000000000000000 ) ) ;
#113 = DIRECTION ( 'NONE',  ( -3.491481338843133355E-15, 1.230835259046140666E-16, -1.000000000000000000 ) ) ;
#114 = AXIS2_PLACEMENT_3D ( 'NONE', #69, #47, #163 ) ;
#115 = FACE_OUTER_BOUND ( 'NONE', #250, .T. ) ;
#116 = CALENDAR_DATE ( 2021, 13, 12 ) ;
#117 = PLANE ( 'NONE',  #62 ) ;
#118 = DIRECTION ( 'NONE',  ( 4.297438338149754172E-31, 1.000000000000000000, 1.230835259046140666E-16 ) ) ;
#119 = APPLICATION_PROTOCOL_DEFINITION ( 'international standard', 'config_control_design', 1994, #198 ) ;
#120 = ORGANIZATION ( 'UNSPECIFIED', 'UNSPECIFIED', '' ) ;
#121 = FACE_OUTER_BOUND ( 'NONE', #252, .T. ) ;
#122 = APPROVAL_ROLE ( '' ) ;
#123 = VERTEX_POINT ( 'NONE', #12 ) ;
#124 = CC_DESIGN_DATE_AND_TIME_ASSIGNMENT ( #263, #56, ( #19 ) ) ;
#125 = EDGE_LOOP ( 'NONE', ( #15 ) ) ;
#126 = ORIENTED_EDGE ( 'NONE', *, *, #246, .T. ) ;
#127 = CARTESIAN_POINT ( 'NONE',  ( 4.888073874380386697E-14, 2.949999999999998845, 14.00000000000000000 ) ) ;
#128 = EDGE_LOOP ( 'NONE', ( #206 ) ) ;
#129 = DIRECTION ( 'NONE',  ( 0.0000000000000000000, 1.000000000000000000, 0.0000000000000000000 ) ) ;
#130 = ADVANCED_FACE ( 'NONE', ( #71 ), #235, .T. ) ;
#131 = AXIS2_PLACEMENT_3D ( 'NONE', #21, #273, #259 ) ;
#132 = ORIENTED_EDGE ( 'NONE', *, *, #84, .F. ) ;
#133 = PRODUCT_RELATED_PRODUCT_CATEGORY ( 'detail', '', ( #22 ) ) ;
#134 = DIRECTION ( 'NONE',  ( 0.0000000000000000000, 1.000000000000000000, 0.0000000000000000000 ) ) ;
#135 = AXIS2_PLACEMENT_3D ( 'NONE', #241, #140, #197 ) ;
#136 = CALENDAR_DATE ( 2021, 13, 12 ) ;
#137 = DIRECTION ( 'NONE',  ( 3.491481338843133355E-15, -1.224646799147353207E-16, 1.000000000000000000 ) ) ;
#138 = DIRECTION ( 'NONE',  ( 0.0000000000000000000, 1.000000000000000000, 0.0000000000000000000 ) ) ;
#139 = FACE_OUTER_BOUND ( 'NONE', #156, .T. ) ;
#140 = DIRECTION ( 'NONE',  ( 0.0000000000000000000, 0.0000000000000000000, 1.000000000000000000 ) ) ;
#141 = CLOSED_SHELL ( 'NONE', ( #95, #155, #130 ) ) ;
#142 = APPROVAL_STATUS ( 'not_yet_approved' ) ;
#143 = CC_DESIGN_APPROVAL ( #193, ( #239 ) ) ;
#144 = CARTESIAN_POINT ( 'NONE',  ( 1.326762908760390675E-14, 1.249999999999999556, 3.799999999999999822 ) ) ;
#145 = ADVANCED_BREP_SHAPE_REPRESENTATION ( '384646', ( #292, #204, #135 ), #37 ) ;
#146 = VERTEX_POINT ( 'NONE', #144 ) ;
#147 = AXIS2_PLACEMENT_3D ( 'NONE', #98, #76, #26 ) ;
#148 = CARTESIAN_POINT ( 'NONE',  ( 1.326762908760390675E-14, 1.249999999999999556, 3.799999999999999822 ) ) ;
#149 = DATE_AND_TIME ( #116, #203 ) ;
#150 = CARTESIAN_POINT ( 'NONE',  ( 1.920314736363723472E-13, -6.735557395310442615E-15, 55.00000000000000000 ) ) ;
#151 = ORIENTED_EDGE ( 'NONE', *, *, #80, .F. ) ;
#152 = VERTEX_POINT ( 'NONE', #251 ) ;
#153 = AXIS2_PLACEMENT_3D ( 'NONE', #196, #173, #4 ) ;
#154 = ORIENTED_EDGE ( 'NONE', *, *, #192, .F. ) ;
#155 = ADVANCED_FACE ( 'NONE', ( #94, #277 ), #243, .T. ) ;
#156 = EDGE_LOOP ( 'NONE', ( #126 ) ) ;
#157 = FACE_OUTER_BOUND ( 'NONE', #89, .T. ) ;
#158 = CIRCLE ( 'NONE', #223, 2.999999999999995115 ) ;
#159 = LOCAL_TIME ( 14, 56, 13.00000000000000000, #242 ) ;
#160 = CARTESIAN_POINT ( 'NONE',  ( -2.137867757404172076E-31, 7.498630672827370379E-33, -6.123096616957811767E-17 ) ) ;
#161 = DIRECTION ( 'NONE',  ( 4.275831445896958607E-31, 1.000000000000000000, 1.224646799147353207E-16 ) ) ;
#162 = APPROVAL_PERSON_ORGANIZATION ( #74, #193, #167 ) ;
#163 = DIRECTION ( 'NONE',  ( 0.0000000000000000000, 1.000000000000000000, 0.0000000000000000000 ) ) ;
#164 = FACE_OUTER_BOUND ( 'NONE', #34, .T. ) ;
#165 = PLANE ( 'NONE',  #289 ) ;
#166 = PERSON_AND_ORGANIZATION ( #93, #120 ) ;
#167 = APPROVAL_ROLE ( '' ) ;
#168 = DIRECTION ( 'NONE',  ( 3.491481338843133355E-15, -1.230835259046140666E-16, 1.000000000000000000 ) ) ;
#169 = CIRCLE ( 'NONE', #282, 1.250000000000000000 ) ;
#170 = DIRECTION ( 'NONE',  ( -3.491481338843133355E-15, 1.230835259046140666E-16, -1.000000000000000000 ) ) ;
#171 = APPROVAL_ROLE ( '' ) ;
#172 = DESIGN_CONTEXT ( 'detailed design', #198, 'design' ) ;
#173 = DIRECTION ( 'NONE',  ( -3.491481338843133355E-15, 1.230835259046140666E-16, -1.000000000000000000 ) ) ;
#174 = VERTEX_POINT ( 'NONE', #148 ) ;
#175 = ADVANCED_FACE ( 'NONE', ( #40, #23 ), #176, .T. ) ;
#176 = CONICAL_SURFACE ( 'NONE', #233, 2.999999999999998668, 0.7853981633974508325 ) ;
#177 = DIRECTION ( 'NONE',  ( -3.491481338843133355E-15, 1.230835259046140666E-16, -1.000000000000000000 ) ) ;
#178 = EDGE_LOOP ( 'NONE', ( #254 ) ) ;
#179 = AXIS2_PLACEMENT_3D ( 'NONE', #2, #5, #138 ) ;
#180 = CC_DESIGN_APPROVAL ( #39, ( #19 ) ) ;
#181 = EDGE_LOOP ( 'NONE', ( #300 ) ) ;
#182 = CARTESIAN_POINT ( 'NONE',  ( 1.326762908760390675E-14, -4.653657836759942730E-16, 3.799999999999999822 ) ) ;
#183 = CIRCLE ( 'NONE', #131, 1.249999999999999556 ) ;
#184 = DIRECTION ( 'NONE',  ( -3.491481338843133355E-15, 1.230835259046140666E-16, -1.000000000000000000 ) ) ;
#185 = CARTESIAN_POINT ( 'NONE',  ( 1.745740669421566678E-14, -5.813811000797386437E-16, 5.000000000000000000 ) ) ;
#186 = ADVANCED_FACE ( 'NONE', ( #121, #191 ), #165, .T. ) ;
#187 = CIRCLE ( 'NONE', #58, 1.625000000000000000 ) ;
#188 = PERSON_AND_ORGANIZATION_ROLE ( 'classification_officer' ) ;
#189 = PLANE ( 'NONE',  #75 ) ;
#190 = SECURITY_CLASSIFICATION_LEVEL ( 'unclassified' ) ;
#191 = FACE_BOUND ( 'NONE', #202, .T. ) ;
#192 = EDGE_CURVE ( 'NONE', #294, #294, #110, .T. ) ;
#193 = APPROVAL ( #142, 'UNSPECIFIED' ) ;
#194 = DIRECTION ( 'NONE',  ( 4.297438338149754172E-31, 1.000000000000000000, 1.230835259046140666E-16 ) ) ;
#195 = PERSON_AND_ORGANIZATION_ROLE ( 'design_owner' ) ;
#196 = CARTESIAN_POINT ( 'NONE',  ( 1.745740669421566678E-14, -5.813811000797386437E-16, 5.000000000000000000 ) ) ;
#197 = DIRECTION ( 'NONE',  ( 1.000000000000000000, 0.0000000000000000000, 0.0000000000000000000 ) ) ;
#198 = APPLICATION_CONTEXT ( 'configuration controlled 3d designs of mechanical parts and assemblies' ) ;
#199 = DIRECTION ( 'NONE',  ( -3.491481338843133355E-15, 1.230835259046140666E-16, -1.000000000000000000 ) ) ;
#200 = CARTESIAN_POINT ( 'NONE',  ( 3.922202660347611585E-14, -1.348638862165659614E-15, 11.23363489505916490 ) ) ;
#201 = EDGE_LOOP ( 'NONE', ( #132 ) ) ;
#202 = EDGE_LOOP ( 'NONE', ( #154 ) ) ;
#203 = LOCAL_TIME ( 14, 56, 13.00000000000000000, #59 ) ;
#204 = MANIFOLD_SOLID_BREP ( 'Corps-Déplacer/Copier3[2]', #141 ) ;
#205 = ORIENTED_EDGE ( 'NONE', *, *, #11, .F. ) ;
#206 = ORIENTED_EDGE ( 'NONE', *, *, #57, .F. ) ;
#207 =( LENGTH_UNIT ( ) NAMED_UNIT ( * ) SI_UNIT ( .MILLI., .METRE. ) );
#208 = AXIS2_PLACEMENT_3D ( 'NONE', #25, #112, #1 ) ;
#209 = APPROVAL_PERSON_ORGANIZATION ( #30, #266, #122 ) ;
#210 = ADVANCED_FACE ( 'NONE', ( #31, #224 ), #82, .T. ) ;
#211 = CC_DESIGN_APPROVAL ( #266, ( #283 ) ) ;
#212 = FACE_OUTER_BOUND ( 'NONE', #178, .T. ) ;
#213 = PERSON_AND_ORGANIZATION ( #93, #120 ) ;
#214 = CC_DESIGN_PERSON_AND_ORGANIZATION_ASSIGNMENT ( #247, #216, ( #283 ) ) ;
#215 = DIRECTION ( 'NONE',  ( -3.491481338843133355E-15, 1.230835259046140666E-16, -1.000000000000000000 ) ) ;
#216 = PERSON_AND_ORGANIZATION_ROLE ( 'creator' ) ;
#217 = DATE_AND_TIME ( #136, #159 ) ;
#218 = FACE_OUTER_BOUND ( 'NONE', #291, .T. ) ;
#219 = ADVANCED_FACE ( 'NONE', ( #139 ), #117, .T. ) ;
#220 = APPLICATION_CONTEXT ( 'configuration controlled 3d designs of mechanical parts and assemblies' ) ;
#221 = FACE_BOUND ( 'NONE', #85, .T. ) ;
#222 = CALENDAR_DATE ( 2021, 13, 12 ) ;
#223 = AXIS2_PLACEMENT_3D ( 'NONE', #105, #16, #61 ) ;
#224 = FACE_BOUND ( 'NONE', #201, .T. ) ;
#225 = ADVANCED_FACE ( 'NONE', ( #100, #221 ), #189, .T. ) ;
#226 = CLOSED_SHELL ( 'NONE', ( #225, #210, #260, #186, #276, #175, #106, #219, #53 ) ) ;
#227 = ORIENTED_EDGE ( 'NONE', *, *, #298, .T. ) ;
#228 = ORIENTED_EDGE ( 'NONE', *, *, #13, .T. ) ;
#229 = DIRECTION ( 'NONE',  ( -3.491481338843133355E-15, 1.224646799147353207E-16, -1.000000000000000000 ) ) ;
#230 = AXIS2_PLACEMENT_3D ( 'NONE', #160, #137, #303 ) ;
#231 = ORIENTED_EDGE ( 'NONE', *, *, #80, .T. ) ;
#232 = CARTESIAN_POINT ( 'NONE',  ( 1.920314736363723472E-13, -6.735557395310442615E-15, 55.00000000000000000 ) ) ;
#233 = AXIS2_PLACEMENT_3D ( 'NONE', #101, #199, #55 ) ;
#234 = APPROVAL_DATE_TIME ( #217, #193 ) ;
#235 = PLANE ( 'NONE',  #208 ) ;
#236 = DIRECTION ( 'NONE',  ( 4.297438338149754172E-31, 1.000000000000000000, 1.230835259046140666E-16 ) ) ;
#237 = CALENDAR_DATE ( 2021, 13, 12 ) ;
#238 = CIRCLE ( 'NONE', #153, 1.250000000000000222 ) ;
#239 = SECURITY_CLASSIFICATION ( '', '', #190 ) ;
#240 = CARTESIAN_POINT ( 'NONE',  ( 1.326762908760390675E-14, -4.336808689942017736E-16, 3.799999999999999822 ) ) ;
#241 = CARTESIAN_POINT ( 'NONE',  ( 0.0000000000000000000, 0.0000000000000000000, 0.0000000000000000000 ) ) ;
#242 = COORDINATED_UNIVERSAL_TIME_OFFSET ( 1, 0, .AHEAD. ) ;
#243 = CYLINDRICAL_SURFACE ( 'NONE', #32, 1.249999999999999778 ) ;
#244 = CARTESIAN_POINT ( 'NONE',  ( 1.920314736363723472E-13, 2.399999999999992362, 55.00000000000000000 ) ) ;
#245 = PERSON_AND_ORGANIZATION ( #93, #120 ) ;
#246 = EDGE_CURVE ( 'NONE', #174, #174, #7, .T. ) ;
#247 = PERSON_AND_ORGANIZATION ( #93, #120 ) ;
#248 = EDGE_LOOP ( 'NONE', ( #63 ) ) ;
#249 = AXIS2_PLACEMENT_3D ( 'NONE', #109, #184, #91 ) ;
#250 = EDGE_LOOP ( 'NONE', ( #253 ) ) ;
#251 = CARTESIAN_POINT ( 'NONE',  ( 1.745740669421566678E-14, 1.624999999999999334, 5.000000000000000000 ) ) ;
#252 = EDGE_LOOP ( 'NONE', ( #299 ) ) ;
#253 = ORIENTED_EDGE ( 'NONE', *, *, #20, .F. ) ;
#254 = ORIENTED_EDGE ( 'NONE', *, *, #192, .T. ) ;
#255 = CARTESIAN_POINT ( 'NONE',  ( 0.0000000000000000000, 0.0000000000000000000, 0.0000000000000000000 ) ) ;
#256 = DIRECTION ( 'NONE',  ( -3.491481338843133355E-15, 1.230835259046140666E-16, -1.000000000000000000 ) ) ;
#257 = AXIS2_PLACEMENT_3D ( 'NONE', #284, #168, #81 ) ;
#258 = DIRECTION ( 'NONE',  ( -4.297438338149754172E-31, -1.000000000000000000, -1.230835259046140666E-16 ) ) ;
#259 = DIRECTION ( 'NONE',  ( 4.275831445896959482E-31, 1.000000000000000000, 1.224646799147353207E-16 ) ) ;
#260 = ADVANCED_FACE ( 'NONE', ( #212, #96 ), #278, .T. ) ;
#261 = CARTESIAN_POINT ( 'NONE',  ( 1.326762908760390675E-14, -4.336808689942017736E-16, 3.799999999999999822 ) ) ;
#262 = CARTESIAN_POINT ( 'NONE',  ( 1.745740669421566678E-14, 1.624999999999999334, 5.000000000000000000 ) ) ;
#263 = DATE_AND_TIME ( #3, #296 ) ;
#264 = APPROVAL_STATUS ( 'not_yet_approved' ) ;
#265 = EDGE_LOOP ( 'NONE', ( #151 ) ) ;
#266 = APPROVAL ( #77, 'UNSPECIFIED' ) ;
#267 = ORIENTED_EDGE ( 'NONE', *, *, #84, .T. ) ;
#268 = PRODUCT_DEFINITION_SHAPE ( 'NONE', 'NONE',  #19 ) ;
#269 = EDGE_LOOP ( 'NONE', ( #60 ) ) ;
#270 = EDGE_LOOP ( 'NONE', ( #228 ) ) ;
#271 = EDGE_LOOP ( 'NONE', ( #64 ) ) ;
#272 = CIRCLE ( 'NONE', #295, 2.949999999999999734 ) ;
#273 = DIRECTION ( 'NONE',  ( -3.491481338843133355E-15, 1.224646799147353207E-16, -1.000000000000000000 ) ) ;
#274 = PLANE ( 'NONE',  #35 ) ;
#275 = AXIS2_PLACEMENT_3D ( 'NONE', #261, #215, #51 ) ;
#276 = ADVANCED_FACE ( 'NONE', ( #218, #115 ), #281, .T. ) ;
#277 = FACE_OUTER_BOUND ( 'NONE', #270, .T. ) ;
#278 = CYLINDRICAL_SURFACE ( 'NONE', #103, 2.950000000000000178 ) ;
#279 = UNCERTAINTY_MEASURE_WITH_UNIT (LENGTH_MEASURE( 1.000000000000000082E-05 ), #207, 'distance_accuracy_value', 'NONE');
#280 = COORDINATED_UNIVERSAL_TIME_OFFSET ( 1, 0, .AHEAD. ) ;
#281 = CYLINDRICAL_SURFACE ( 'NONE', #275, 2.999999999999996891 ) ;
#282 = AXIS2_PLACEMENT_3D ( 'NONE', #182, #229, #65 ) ;
#283 = PRODUCT_DEFINITION_FORMATION_WITH_SPECIFIED_SOURCE ( 'ANY', '', #22, .NOT_KNOWN. ) ;
#284 = CARTESIAN_POINT ( 'NONE',  ( 1.745740669421566678E-14, -5.813811000797386437E-16, 5.000000000000000000 ) ) ;
#285 = VERTEX_POINT ( 'NONE', #48 ) ;
#286 = APPLICATION_PROTOCOL_DEFINITION ( 'international standard', 'config_control_design', 1994, #220 ) ;
#287 = VERTEX_POINT ( 'NONE', #33 ) ;
#288 = DIRECTION ( 'NONE',  ( -3.491481338843133355E-15, 1.230835259046140666E-16, -1.000000000000000000 ) ) ;
#289 = AXIS2_PLACEMENT_3D ( 'NONE', #49, #288, #118 ) ;
#290 = CC_DESIGN_PERSON_AND_ORGANIZATION_ASSIGNMENT ( #166, #6, ( #19 ) ) ;
#291 = EDGE_LOOP ( 'NONE', ( #231 ) ) ;
#292 = MANIFOLD_SOLID_BREP ( 'Corps-Déplacer/Copier3[1]', #226 ) ;
#293 = ORIENTED_EDGE ( 'NONE', *, *, #298, .F. ) ;
#294 = VERTEX_POINT ( 'NONE', #127 ) ;
#295 = AXIS2_PLACEMENT_3D ( 'NONE', #200, #297, #129 ) ;
#296 = LOCAL_TIME ( 14, 56, 13.00000000000000000, #99 ) ;
#297 = DIRECTION ( 'NONE',  ( -3.491481338843133355E-15, 1.230835259046140666E-16, -1.000000000000000000 ) ) ;
#298 = EDGE_CURVE ( 'NONE', #123, #123, #238, .T. ) ;
#299 = ORIENTED_EDGE ( 'NONE', *, *, #20, .T. ) ;
#300 = ORIENTED_EDGE ( 'NONE', *, *, #43, .T. ) ;
#301 = CC_DESIGN_DATE_AND_TIME_ASSIGNMENT ( #27, #44, ( #239 ) ) ;
#302 = AXIS2_PLACEMENT_3D ( 'NONE', #150, #177, #107 ) ;
#303 = DIRECTION ( 'NONE',  ( -4.275831445896958607E-31, -1.000000000000000000, -1.224646799147353207E-16 ) ) ;
ENDSEC;
END-ISO-10303-21;
