ISO-10303-21;
HEADER;
FILE_DESCRIPTION (( 'STEP AP203' ),
    '1' );
FILE_NAME ('384645.step',
    '2021-12-13T13:56:13',
    ( '' ),
    ( '' ),
    'SwSTEP 2.0',
    'SolidWorks 2019',
    '' );
FILE_SCHEMA (( 'CONFIG_CONTROL_DESIGN' ));
ENDSEC;

DATA;
#1 = AXIS2_PLACEMENT_3D ( 'NONE', #5, #9, #290 ) ;
#2 = CC_DESIGN_APPROVAL ( #214, ( #185 ) ) ;
#3 = FACE_OUTER_BOUND ( 'NONE', #306, .T. ) ;
#4 = DATE_AND_TIME ( #234, #307 ) ;
#5 = CARTESIAN_POINT ( 'NONE',  ( 1.047444401652940007E-14, -3.673940397442059868E-16, 3.000000000000000000 ) ) ;
#6 = EDGE_LOOP ( 'NONE', ( #130 ) ) ;
#7 = AXIS2_PLACEMENT_3D ( 'NONE', #164, #80, #265 ) ;
#8 = APPROVAL_PERSON_ORGANIZATION ( #81, #135, #154 ) ;
#9 = DIRECTION ( 'NONE',  ( -3.491481338843133355E-15, 1.224646799147353207E-16, -1.000000000000000000 ) ) ;
#10 = EDGE_CURVE ( 'NONE', #36, #36, #75, .T. ) ;
#11 = CC_DESIGN_PERSON_AND_ORGANIZATION_ASSIGNMENT ( #288, #28, ( #185 ) ) ;
#12 = PLANE ( 'NONE',  #93 ) ;
#13 = CIRCLE ( 'NONE', #1, 1.000000000000000000 ) ;
#14 = DIRECTION ( 'NONE',  ( -3.491481338843133355E-15, 1.224646799147353207E-16, -1.000000000000000000 ) ) ;
#15 = FACE_OUTER_BOUND ( 'NONE', #334, .T. ) ;
#16 = ORIENTED_EDGE ( 'NONE', *, *, #57, .F. ) ;
#17 = FACE_OUTER_BOUND ( 'NONE', #280, .T. ) ;
#18 = APPLICATION_CONTEXT ( 'configuration controlled 3d designs of mechanical parts and assemblies' ) ;
#19 = CLOSED_SHELL ( 'NONE', ( #160, #292, #113 ) ) ;
#20 = DATE_TIME_ROLE ( 'classification_date' ) ;
#21 = AXIS2_PLACEMENT_3D ( 'NONE', #97, #336, #121 ) ;
#22 = ORIENTED_EDGE ( 'NONE', *, *, #98, .T. ) ;
#23 = DIRECTION ( 'NONE',  ( 4.382052623509996821E-31, 1.000000000000000000, 1.224646799147353207E-16 ) ) ;
#24 = VERTEX_POINT ( 'NONE', #335 ) ;
#25 = ADVANCED_FACE ( 'NONE', ( #41 ), #71, .F. ) ;
#26 = DIRECTION ( 'NONE',  ( 0.0000000000000000000, 1.000000000000000000, 0.0000000000000000000 ) ) ;
#27 = CIRCLE ( 'NONE', #239, 2.949999999999999734 ) ;
#28 = PERSON_AND_ORGANIZATION_ROLE ( 'classification_officer' ) ;
#29 = PRODUCT_DEFINITION ( 'UNKNOWN', '', #140, #33 ) ;
#30 = DIRECTION ( 'NONE',  ( 0.0000000000000000000, 1.000000000000000000, 0.0000000000000000000 ) ) ;
#31 = APPROVAL_STATUS ( 'not_yet_approved' ) ;
#32 = ADVANCED_FACE ( 'NONE', ( #137, #109 ), #150, .T. ) ;
#33 = DESIGN_CONTEXT ( 'detailed design', #110, 'design' ) ;
#34 = AXIS2_PLACEMENT_3D ( 'NONE', #320, #83, #182 ) ;
#35 = DATE_AND_TIME ( #141, #123 ) ;
#36 = VERTEX_POINT ( 'NONE', #144 ) ;
#37 = DIRECTION ( 'NONE',  ( 0.0000000000000000000, 1.000000000000000000, 0.0000000000000000000 ) ) ;
#38 = CARTESIAN_POINT ( 'NONE',  ( 1.396592535537253342E-14, 0.9999999999999995559, 4.000000000000000000 ) ) ;
#39 = EDGE_LOOP ( 'NONE', ( #296 ) ) ;
#40 = AXIS2_PLACEMENT_3D ( 'NONE', #302, #303, #64 ) ;
#41 = FACE_OUTER_BOUND ( 'NONE', #84, .T. ) ;
#42 = AXIS2_PLACEMENT_3D ( 'NONE', #313, #173, #23 ) ;
#43 = EDGE_LOOP ( 'NONE', ( #226 ) ) ;
#44 = CARTESIAN_POINT ( 'NONE',  ( -4.062113106125908252E-31, 1.424797480040350824E-32, -1.163435433818428666E-16 ) ) ;
#45 = FACE_OUTER_BOUND ( 'NONE', #6, .T. ) ;
#46 = EDGE_LOOP ( 'NONE', ( #172 ) ) ;
#47 = AXIS2_PLACEMENT_3D ( 'NONE', #297, #191, #37 ) ;
#48 = ORIENTED_EDGE ( 'NONE', *, *, #253, .F. ) ;
#49 = FACE_OUTER_BOUND ( 'NONE', #142, .T. ) ;
#50 = VERTEX_POINT ( 'NONE', #38 ) ;
#51 = ADVANCED_FACE ( 'NONE', ( #287, #206 ), #236, .F. ) ;
#52 = PERSON_AND_ORGANIZATION_ROLE ( 'design_owner' ) ;
#53 = SHAPE_DEFINITION_REPRESENTATION ( #315, #202 ) ;
#54 = FACE_OUTER_BOUND ( 'NONE', #247, .T. ) ;
#55 = DIRECTION ( 'NONE',  ( 0.0000000000000000000, 1.000000000000000000, 0.0000000000000000000 ) ) ;
#56 = EDGE_LOOP ( 'NONE', ( #161 ) ) ;
#57 = EDGE_CURVE ( 'NONE', #235, #235, #108, .T. ) ;
#58 = ORIENTED_EDGE ( 'NONE', *, *, #10, .F. ) ;
#59 = VERTEX_POINT ( 'NONE', #183 ) ;
#60 = DIRECTION ( 'NONE',  ( 4.275831445896958607E-31, 1.000000000000000000, 1.224646799147353207E-16 ) ) ;
#61 = TOROIDAL_SURFACE ( 'NONE', #42, 2.999999999999999556, 2.000000000000000000 ) ;
#62 = DIRECTION ( 'NONE',  ( -3.491481338843133355E-15, 1.224646799147353207E-16, -1.000000000000000000 ) ) ;
#63 = MANIFOLD_SOLID_BREP ( 'Corps-Déplacer/Copier1[2]', #19 ) ;
#64 = DIRECTION ( 'NONE',  ( -4.275831445896958607E-31, -1.000000000000000000, -1.224646799147353207E-16 ) ) ;
#65 = MANIFOLD_SOLID_BREP ( 'Corps-Déplacer/Copier1[1]', #210 ) ;
#66 = APPROVAL_ROLE ( '' ) ;
#67 = DIRECTION ( 'NONE',  ( 4.275831445896958607E-31, 1.000000000000000000, 1.224646799147353207E-16 ) ) ;
#68 = ORIENTED_EDGE ( 'NONE', *, *, #107, .T. ) ;
#69 = DIRECTION ( 'NONE',  ( 0.0000000000000000000, -1.000000000000000000, 0.0000000000000000000 ) ) ;
#70 = ORIENTED_EDGE ( 'NONE', *, *, #222, .F. ) ;
#71 = PLANE ( 'NONE',  #284 ) ;
#72 = AXIS2_PLACEMENT_3D ( 'NONE', #143, #168, #271 ) ;
#73 = CALENDAR_DATE ( 2021, 13, 12 ) ;
#74 = PERSON_AND_ORGANIZATION_ROLE ( 'design_supplier' ) ;
#75 = CIRCLE ( 'NONE', #268, 2.999999999999995115 ) ;
#76 = DATE_AND_TIME ( #209, #246 ) ;
#77 =( NAMED_UNIT ( * ) SI_UNIT ( $, .STERADIAN. ) SOLID_ANGLE_UNIT ( ) );
#78 = CARTESIAN_POINT ( 'NONE',  ( 1.899365848330664545E-13, -6.662078587361601684E-15, 54.40000000000000568 ) ) ;
#79 = APPROVAL_DATE_TIME ( #4, #192 ) ;
#80 = DIRECTION ( 'NONE',  ( 3.491481338843133355E-15, -1.224646799147353207E-16, 1.000000000000000000 ) ) ;
#81 = PERSON_AND_ORGANIZATION ( #119, #244 ) ;
#82 = PRODUCT_RELATED_PRODUCT_CATEGORY ( 'detail', '', ( #276 ) ) ;
#83 = DIRECTION ( 'NONE',  ( 0.0000000000000000000, 0.0000000000000000000, 1.000000000000000000 ) ) ;
#84 = EDGE_LOOP ( 'NONE', ( #48 ) ) ;
#85 = AXIS2_PLACEMENT_3D ( 'NONE', #149, #254, #26 ) ;
#86 = DIRECTION ( 'NONE',  ( -3.491481338843133355E-15, 1.224646799147353207E-16, -1.000000000000000000 ) ) ;
#87 = CARTESIAN_POINT ( 'NONE',  ( 1.920314736363723472E-13, 2.399999999999992362, 55.00000000000000000 ) ) ;
#88 = CC_DESIGN_PERSON_AND_ORGANIZATION_ASSIGNMENT ( #261, #52, ( #276 ) ) ;
#89 = DIRECTION ( 'NONE',  ( 0.0000000000000000000, 1.000000000000000000, 0.0000000000000000000 ) ) ;
#90 = EDGE_LOOP ( 'NONE', ( #112 ) ) ;
#91 = DIRECTION ( 'NONE',  ( 0.0000000000000000000, 1.000000000000000000, 0.0000000000000000000 ) ) ;
#92 = VERTEX_POINT ( 'NONE', #258 ) ;
#93 = AXIS2_PLACEMENT_3D ( 'NONE', #199, #333, #309 ) ;
#94 = PERSON_AND_ORGANIZATION ( #119, #244 ) ;
#95 = CARTESIAN_POINT ( 'NONE',  ( 1.780655482809997696E-14, -6.245698675651500839E-16, 5.099999999999999645 ) ) ;
#96 = AXIS2_PLACEMENT_3D ( 'NONE', #240, #133, #55 ) ;
#97 = CARTESIAN_POINT ( 'NONE',  ( 0.0000000000000000000, 0.0000000000000000000, 0.0000000000000000000 ) ) ;
#98 = EDGE_CURVE ( 'NONE', #171, #171, #148, .T. ) ;
#99 = CIRCLE ( 'NONE', #165, 2.399999999999999467 ) ;
#100 = CIRCLE ( 'NONE', #85, 1.625000000000000000 ) ;
#101 = DIRECTION ( 'NONE',  ( -3.491481338843133355E-15, 1.224646799147353207E-16, -1.000000000000000000 ) ) ;
#102 = ORIENTED_EDGE ( 'NONE', *, *, #253, .T. ) ;
#103 = CIRCLE ( 'NONE', #116, 0.9999999999999995559 ) ;
#104 = ADVANCED_FACE ( 'NONE', ( #126 ), #237, .F. ) ;
#105 = CARTESIAN_POINT ( 'NONE',  ( 1.920314736363723472E-13, -6.735557395310442615E-15, 55.00000000000000000 ) ) ;
#106 = CYLINDRICAL_SURFACE ( 'NONE', #248, 2.999999999999996891 ) ;
#107 = EDGE_CURVE ( 'NONE', #24, #24, #103, .T. ) ;
#108 = CIRCLE ( 'NONE', #293, 2.999999999999998668 ) ;
#109 = FACE_OUTER_BOUND ( 'NONE', #219, .T. ) ;
#110 = APPLICATION_CONTEXT ( 'configuration controlled 3d designs of mechanical parts and assemblies' ) ;
#111 = DIRECTION ( 'NONE',  ( -4.275831445896958607E-31, -1.000000000000000000, -1.224646799147353207E-16 ) ) ;
#112 = ORIENTED_EDGE ( 'NONE', *, *, #107, .F. ) ;
#113 = ADVANCED_FACE ( 'NONE', ( #15 ), #12, .T. ) ;
#114 = EDGE_LOOP ( 'NONE', ( #70 ) ) ;
#115 = CARTESIAN_POINT ( 'NONE',  ( 1.899365848330664545E-13, 2.999999999999992450, 54.40000000000000568 ) ) ;
#116 = AXIS2_PLACEMENT_3D ( 'NONE', #44, #229, #228 ) ;
#117 = EDGE_LOOP ( 'NONE', ( #68 ) ) ;
#118 = CYLINDRICAL_SURFACE ( 'NONE', #233, 2.950000000000000178 ) ;
#119 = PERSON ( 'UNSPECIFIED', 'UNSPECIFIED', 'UNSPECIFIED', ('UNSPECIFIED'), ('UNSPECIFIED'), ('UNSPECIFIED') ) ;
#120 = ADVANCED_FACE ( 'NONE', ( #169, #45 ), #325, .F. ) ;
#121 = DIRECTION ( 'NONE',  ( 4.275831445896958607E-31, 1.000000000000000000, 1.224646799147353207E-16 ) ) ;
#122 = AXIS2_PLACEMENT_3D ( 'NONE', #227, #330, #91 ) ;
#123 = LOCAL_TIME ( 14, 56, 13.00000000000000000, #274 ) ;
#124 = APPROVAL_DATE_TIME ( #181, #135 ) ;
#125 = COORDINATED_UNIVERSAL_TIME_OFFSET ( 1, 0, .AHEAD. ) ;
#126 = FACE_OUTER_BOUND ( 'NONE', #162, .T. ) ;
#127 = APPLICATION_PROTOCOL_DEFINITION ( 'international standard', 'config_control_design', 1994, #110 ) ;
#128 = AXIS2_PLACEMENT_3D ( 'NONE', #95, #153, #30 ) ;
#129 = DIRECTION ( 'NONE',  ( 4.275831445896958607E-31, 1.000000000000000000, 1.224646799147353207E-16 ) ) ;
#130 = ORIENTED_EDGE ( 'NONE', *, *, #207, .T. ) ;
#131 = FACE_OUTER_BOUND ( 'NONE', #147, .T. ) ;
#132 = CC_DESIGN_SECURITY_CLASSIFICATION ( #185, ( #140 ) ) ;
#133 = DIRECTION ( 'NONE',  ( -3.491481338843133355E-15, 1.224646799147353207E-16, -1.000000000000000000 ) ) ;
#134 = EDGE_CURVE ( 'NONE', #50, #50, #211, .T. ) ;
#135 = APPROVAL ( #31, 'UNSPECIFIED' ) ;
#136 = DIRECTION ( 'NONE',  ( -4.275831445896958607E-31, -1.000000000000000000, -1.224646799147353207E-16 ) ) ;
#137 = FACE_OUTER_BOUND ( 'NONE', #43, .T. ) ;
#138 = AXIS2_PLACEMENT_3D ( 'NONE', #295, #196, #136 ) ;
#139 = PLANE ( 'NONE',  #184 ) ;
#140 = PRODUCT_DEFINITION_FORMATION_WITH_SPECIFIED_SOURCE ( 'ANY', '', #276, .NOT_KNOWN. ) ;
#141 = CALENDAR_DATE ( 2021, 13, 12 ) ;
#142 = EDGE_LOOP ( 'NONE', ( #193 ) ) ;
#143 = CARTESIAN_POINT ( 'NONE',  ( 1.541776493260754402E-14, -5.407823969919962032E-16, 4.415823381635505029 ) ) ;
#144 = CARTESIAN_POINT ( 'NONE',  ( 4.922988687768818031E-14, 2.999999999999993339, 14.09999999999999964 ) ) ;
#145 = ADVANCED_FACE ( 'NONE', ( #273, #17 ), #198, .T. ) ;
#146 = DIRECTION ( 'NONE',  ( -3.491481338843133355E-15, 1.224646799147353207E-16, -1.000000000000000000 ) ) ;
#147 = EDGE_LOOP ( 'NONE', ( #16 ) ) ;
#148 = CIRCLE ( 'NONE', #128, 1.189131028106960475 ) ;
#149 = CARTESIAN_POINT ( 'NONE',  ( 1.780655482809998011E-14, -6.245698675651501825E-16, 5.100000000000000533 ) ) ;
#150 = CYLINDRICAL_SURFACE ( 'NONE', #21, 1.000000000000000000 ) ;
#151 = CC_DESIGN_APPROVAL ( #135, ( #140 ) ) ;
#152 = VERTEX_POINT ( 'NONE', #231 ) ;
#153 = DIRECTION ( 'NONE',  ( -3.491481338843133355E-15, 1.224646799147353207E-16, -1.000000000000000000 ) ) ;
#154 = APPROVAL_ROLE ( '' ) ;
#155 = CC_DESIGN_PERSON_AND_ORGANIZATION_ASSIGNMENT ( #340, #260, ( #140 ) ) ;
#156 = APPROVAL_DATE_TIME ( #35, #214 ) ;
#157 = CALENDAR_DATE ( 2021, 13, 12 ) ;
#158 = CONICAL_SURFACE ( 'NONE', #96, 2.399999999999999467, 0.7853981633974508325 ) ;
#159 = FACE_OUTER_BOUND ( 'NONE', #90, .T. ) ;
#160 = ADVANCED_FACE ( 'NONE', ( #282 ), #139, .F. ) ;
#161 = ORIENTED_EDGE ( 'NONE', *, *, #98, .F. ) ;
#162 = EDGE_LOOP ( 'NONE', ( #189 ) ) ;
#163 = ADVANCED_FACE ( 'NONE', ( #230, #225 ), #61, .F. ) ;
#164 = CARTESIAN_POINT ( 'NONE',  ( 3.957117473736042919E-14, -1.387969969693895498E-15, 11.33363489505916455 ) ) ;
#165 = AXIS2_PLACEMENT_3D ( 'NONE', #105, #323, #180 ) ;
#166 = CARTESIAN_POINT ( 'NONE',  ( 1.780655482809997696E-14, -6.245698675651500839E-16, 5.099999999999999645 ) ) ;
#167 = ORIENTED_EDGE ( 'NONE', *, *, #134, .T. ) ;
#168 = DIRECTION ( 'NONE',  ( -3.491481338843133355E-15, 1.224646799147353207E-16, -1.000000000000000000 ) ) ;
#169 = FACE_BOUND ( 'NONE', #56, .T. ) ;
#170 = ORIENTED_EDGE ( 'NONE', *, *, #212, .F. ) ;
#171 = VERTEX_POINT ( 'NONE', #283 ) ;
#172 = ORIENTED_EDGE ( 'NONE', *, *, #222, .T. ) ;
#173 = DIRECTION ( 'NONE',  ( -3.491481338843133355E-15, 1.224646799147353207E-16, -1.000000000000000000 ) ) ;
#174 =( GEOMETRIC_REPRESENTATION_CONTEXT ( 3 ) GLOBAL_UNCERTAINTY_ASSIGNED_CONTEXT ( ( #188 ) ) GLOBAL_UNIT_ASSIGNED_CONTEXT ( ( #176, #314, #77 ) ) REPRESENTATION_CONTEXT ( 'NONE', 'WORKASPACE' ) );
#175 = DATE_AND_TIME ( #73, #294 ) ;
#176 =( LENGTH_UNIT ( ) NAMED_UNIT ( * ) SI_UNIT ( .MILLI., .METRE. ) );
#177 = SECURITY_CLASSIFICATION_LEVEL ( 'unclassified' ) ;
#178 = CC_DESIGN_APPROVAL ( #192, ( #29 ) ) ;
#179 = PERSON_AND_ORGANIZATION_ROLE ( 'creator' ) ;
#180 = DIRECTION ( 'NONE',  ( 0.0000000000000000000, 1.000000000000000000, 0.0000000000000000000 ) ) ;
#181 = DATE_AND_TIME ( #157, #194 ) ;
#182 = DIRECTION ( 'NONE',  ( 1.000000000000000000, 0.0000000000000000000, 0.0000000000000000000 ) ) ;
#183 = CARTESIAN_POINT ( 'NONE',  ( 1.541776493260754402E-14, 1.043704798532385292, 4.415823381635505029 ) ) ;
#184 = AXIS2_PLACEMENT_3D ( 'NONE', #204, #232, #111 ) ;
#185 = SECURITY_CLASSIFICATION ( '', '', #177 ) ;
#186 = EDGE_LOOP ( 'NONE', ( #243 ) ) ;
#187 = CARTESIAN_POINT ( 'NONE',  ( 0.0000000000000000000, 0.0000000000000000000, 0.0000000000000000000 ) ) ;
#188 = UNCERTAINTY_MEASURE_WITH_UNIT (LENGTH_MEASURE( 1.000000000000000082E-05 ), #176, 'distance_accuracy_value', 'NONE');
#189 = ORIENTED_EDGE ( 'NONE', *, *, #285, .T. ) ;
#190 = ADVANCED_FACE ( 'NONE', ( #311, #49 ), #118, .T. ) ;
#191 = DIRECTION ( 'NONE',  ( -3.491481338843133355E-15, 1.224646799147353207E-16, -1.000000000000000000 ) ) ;
#192 = APPROVAL ( #342, 'UNSPECIFIED' ) ;
#193 = ORIENTED_EDGE ( 'NONE', *, *, #272, .T. ) ;
#194 = LOCAL_TIME ( 14, 56, 13.00000000000000000, #238 ) ;
#195 = CC_DESIGN_PERSON_AND_ORGANIZATION_ASSIGNMENT ( #316, #74, ( #140 ) ) ;
#196 = DIRECTION ( 'NONE',  ( 3.491481338843133355E-15, -1.224646799147353207E-16, 1.000000000000000000 ) ) ;
#197 = ORIENTED_EDGE ( 'NONE', *, *, #212, .T. ) ;
#198 = CONICAL_SURFACE ( 'NONE', #321, 1.189131028106960475, 0.2094395102393123154 ) ;
#199 = CARTESIAN_POINT ( 'NONE',  ( 1.047444401652940007E-14, 7.498798913309281197E-33, 3.000000000000000000 ) ) ;
#200 = EDGE_LOOP ( 'NONE', ( #102 ) ) ;
#201 = CARTESIAN_POINT ( 'NONE',  ( 4.922988687768818031E-14, -1.726751986797767995E-15, 14.09999999999999964 ) ) ;
#202 = ADVANCED_BREP_SHAPE_REPRESENTATION ( '384645', ( #65, #63, #34 ), #174 ) ;
#203 = VERTEX_POINT ( 'NONE', #339 ) ;
#204 = CARTESIAN_POINT ( 'NONE',  ( -2.031056553062954126E-31, 7.123987400201754122E-33, -5.817177169092143331E-17 ) ) ;
#205 = APPROVAL_STATUS ( 'not_yet_approved' ) ;
#206 = FACE_OUTER_BOUND ( 'NONE', #39, .T. ) ;
#207 = EDGE_CURVE ( 'NONE', #263, #263, #100, .T. ) ;
#208 = DIRECTION ( 'NONE',  ( -3.491481338843133355E-15, 1.224646799147353207E-16, -1.000000000000000000 ) ) ;
#209 = CALENDAR_DATE ( 2021, 13, 12 ) ;
#210 = CLOSED_SHELL ( 'NONE', ( #104, #32, #163, #145, #120, #343, #190, #51, #326, #251, #25 ) ) ;
#211 = CIRCLE ( 'NONE', #223, 1.000000000000000000 ) ;
#212 = EDGE_CURVE ( 'NONE', #220, #220, #275, .T. ) ;
#213 = APPROVAL_ROLE ( '' ) ;
#214 = APPROVAL ( #205, 'UNSPECIFIED' ) ;
#215 = COORDINATED_UNIVERSAL_TIME_OFFSET ( 1, 0, .AHEAD. ) ;
#216 = CARTESIAN_POINT ( 'NONE',  ( 1.780655482809998011E-14, 1.624999999999999334, 5.100000000000000533 ) ) ;
#217 = CARTESIAN_POINT ( 'NONE',  ( 3.957117473736042919E-14, -1.387969969693895498E-15, 11.33363489505916455 ) ) ;
#218 = APPROVAL_PERSON_ORGANIZATION ( #94, #214, #66 ) ;
#219 = EDGE_LOOP ( 'NONE', ( #167 ) ) ;
#220 = VERTEX_POINT ( 'NONE', #322 ) ;
#221 = CYLINDRICAL_SURFACE ( 'NONE', #259, 0.9999999999999997780 ) ;
#222 = EDGE_CURVE ( 'NONE', #59, #59, #299, .T. ) ;
#223 = AXIS2_PLACEMENT_3D ( 'NONE', #270, #146, #308 ) ;
#224 = EDGE_LOOP ( 'NONE', ( #304 ) ) ;
#225 = FACE_OUTER_BOUND ( 'NONE', #224, .T. ) ;
#226 = ORIENTED_EDGE ( 'NONE', *, *, #285, .F. ) ;
#227 = CARTESIAN_POINT ( 'NONE',  ( 1.047444401652940007E-14, -3.673940397442059868E-16, 3.000000000000000000 ) ) ;
#228 = DIRECTION ( 'NONE',  ( 4.275831445896958607E-31, 1.000000000000000000, 1.224646799147353207E-16 ) ) ;
#229 = DIRECTION ( 'NONE',  ( -3.491481338843133355E-15, 1.224646799147353207E-16, -1.000000000000000000 ) ) ;
#230 = FACE_OUTER_BOUND ( 'NONE', #46, .T. ) ;
#231 = CARTESIAN_POINT ( 'NONE',  ( 3.957117473736042919E-14, 2.949999999999998845, 11.33363489505916455 ) ) ;
#232 = DIRECTION ( 'NONE',  ( 3.491481338843133355E-15, -1.224646799147353207E-16, 1.000000000000000000 ) ) ;
#233 = AXIS2_PLACEMENT_3D ( 'NONE', #278, #337, #305 ) ;
#234 = CALENDAR_DATE ( 2021, 13, 12 ) ;
#235 = VERTEX_POINT ( 'NONE', #115 ) ;
#236 = PLANE ( 'NONE',  #338 ) ;
#237 = PLANE ( 'NONE',  #138 ) ;
#238 = COORDINATED_UNIVERSAL_TIME_OFFSET ( 1, 0, .AHEAD. ) ;
#239 = AXIS2_PLACEMENT_3D ( 'NONE', #217, #86, #89 ) ;
#240 = CARTESIAN_POINT ( 'NONE',  ( 1.920314736363723472E-13, -6.735557395310442615E-15, 55.00000000000000000 ) ) ;
#241 = CARTESIAN_POINT ( 'NONE',  ( 0.0000000000000000000, 0.0000000000000000000, 0.0000000000000000000 ) ) ;
#242 = MECHANICAL_CONTEXT ( 'NONE', #18, 'mechanical' ) ;
#243 = ORIENTED_EDGE ( 'NONE', *, *, #301, .F. ) ;
#244 = ORGANIZATION ( 'UNSPECIFIED', 'UNSPECIFIED', '' ) ;
#245 = FACE_BOUND ( 'NONE', #200, .T. ) ;
#246 = LOCAL_TIME ( 14, 56, 13.00000000000000000, #125 ) ;
#247 = EDGE_LOOP ( 'NONE', ( #331 ) ) ;
#248 = AXIS2_PLACEMENT_3D ( 'NONE', #187, #62, #60 ) ;
#249 = DIRECTION ( 'NONE',  ( -3.491481338843133355E-15, 1.224646799147353207E-16, -1.000000000000000000 ) ) ;
#250 = ORIENTED_EDGE ( 'NONE', *, *, #207, .F. ) ;
#251 = ADVANCED_FACE ( 'NONE', ( #131, #245 ), #158, .T. ) ;
#252 = ORIENTED_EDGE ( 'NONE', *, *, #272, .F. ) ;
#253 = EDGE_CURVE ( 'NONE', #291, #291, #99, .T. ) ;
#254 = DIRECTION ( 'NONE',  ( -3.491481338843133355E-15, 1.224646799147353207E-16, -1.000000000000000000 ) ) ;
#255 = CC_DESIGN_DATE_AND_TIME_ASSIGNMENT ( #76, #20, ( #185 ) ) ;
#256 = DIRECTION ( 'NONE',  ( -4.275831445896958607E-31, -1.000000000000000000, -1.224646799147353207E-16 ) ) ;
#257 = DATE_TIME_ROLE ( 'creation_date' ) ;
#258 = CARTESIAN_POINT ( 'NONE',  ( 4.922988687768818031E-14, 2.949999999999998845, 14.09999999999999964 ) ) ;
#259 = AXIS2_PLACEMENT_3D ( 'NONE', #241, #101, #129 ) ;
#260 = PERSON_AND_ORGANIZATION_ROLE ( 'creator' ) ;
#261 = PERSON_AND_ORGANIZATION ( #119, #244 ) ;
#262 = PERSON_AND_ORGANIZATION ( #119, #244 ) ;
#263 = VERTEX_POINT ( 'NONE', #216 ) ;
#264 = CC_DESIGN_PERSON_AND_ORGANIZATION_ASSIGNMENT ( #262, #179, ( #29 ) ) ;
#265 = DIRECTION ( 'NONE',  ( 0.0000000000000000000, -1.000000000000000000, 0.0000000000000000000 ) ) ;
#266 = APPLICATION_PROTOCOL_DEFINITION ( 'international standard', 'config_control_design', 1994, #18 ) ;
#267 = EDGE_LOOP ( 'NONE', ( #58 ) ) ;
#268 = AXIS2_PLACEMENT_3D ( 'NONE', #201, #249, #312 ) ;
#269 = FACE_OUTER_BOUND ( 'NONE', #310, .T. ) ;
#270 = CARTESIAN_POINT ( 'NONE',  ( 1.396592535537253342E-14, -4.898587196589412829E-16, 4.000000000000000000 ) ) ;
#271 = DIRECTION ( 'NONE',  ( 0.0000000000000000000, 1.000000000000000000, 0.0000000000000000000 ) ) ;
#272 = EDGE_CURVE ( 'NONE', #92, #92, #298, .T. ) ;
#273 = FACE_BOUND ( 'NONE', #114, .T. ) ;
#274 = COORDINATED_UNIVERSAL_TIME_OFFSET ( 1, 0, .AHEAD. ) ;
#275 = CIRCLE ( 'NONE', #122, 1.000000000000000000 ) ;
#276 = PRODUCT ( '384645', '384645', '', ( #242 ) ) ;
#277 = EDGE_LOOP ( 'NONE', ( #250 ) ) ;
#278 = CARTESIAN_POINT ( 'NONE',  ( 0.0000000000000000000, 0.0000000000000000000, 0.0000000000000000000 ) ) ;
#279 = ORIENTED_EDGE ( 'NONE', *, *, #301, .T. ) ;
#280 = EDGE_LOOP ( 'NONE', ( #22 ) ) ;
#281 = CC_DESIGN_DATE_AND_TIME_ASSIGNMENT ( #175, #257, ( #29 ) ) ;
#282 = FACE_OUTER_BOUND ( 'NONE', #117, .T. ) ;
#283 = CARTESIAN_POINT ( 'NONE',  ( 1.780655482809997696E-14, 1.189131028106959809, 5.099999999999999645 ) ) ;
#284 = AXIS2_PLACEMENT_3D ( 'NONE', #327, #14, #67 ) ;
#285 = EDGE_CURVE ( 'NONE', #203, #203, #13, .T. ) ;
#286 = DIRECTION ( 'NONE',  ( 3.491481338843133355E-15, -1.224646799147353207E-16, 1.000000000000000000 ) ) ;
#287 = FACE_BOUND ( 'NONE', #328, .T. ) ;
#288 = PERSON_AND_ORGANIZATION ( #119, #244 ) ;
#289 = PERSON_AND_ORGANIZATION ( #119, #244 ) ;
#290 = DIRECTION ( 'NONE',  ( 0.0000000000000000000, 1.000000000000000000, 0.0000000000000000000 ) ) ;
#291 = VERTEX_POINT ( 'NONE', #87 ) ;
#292 = ADVANCED_FACE ( 'NONE', ( #159, #3 ), #221, .T. ) ;
#293 = AXIS2_PLACEMENT_3D ( 'NONE', #78, #208, #317 ) ;
#294 = LOCAL_TIME ( 14, 56, 13.00000000000000000, #215 ) ;
#295 = CARTESIAN_POINT ( 'NONE',  ( 1.047444401652940007E-14, 7.498798913309281197E-33, 3.000000000000000000 ) ) ;
#296 = ORIENTED_EDGE ( 'NONE', *, *, #10, .T. ) ;
#297 = CARTESIAN_POINT ( 'NONE',  ( 4.922988687768818031E-14, -1.726751986797767995E-15, 14.09999999999999964 ) ) ;
#298 = CIRCLE ( 'NONE', #47, 2.950000000000000178 ) ;
#299 = CIRCLE ( 'NONE', #72, 1.043704798532385736 ) ;
#300 = FACE_BOUND ( 'NONE', #277, .T. ) ;
#301 = EDGE_CURVE ( 'NONE', #152, #152, #27, .T. ) ;
#302 = CARTESIAN_POINT ( 'NONE',  ( 1.780655482809998011E-14, -8.511857491755995013E-32, 5.100000000000000533 ) ) ;
#303 = DIRECTION ( 'NONE',  ( 3.491481338843133355E-15, -1.224646799147353207E-16, 1.000000000000000000 ) ) ;
#304 = ORIENTED_EDGE ( 'NONE', *, *, #134, .F. ) ;
#305 = DIRECTION ( 'NONE',  ( 4.275831445896958607E-31, 1.000000000000000000, 1.224646799147353207E-16 ) ) ;
#306 = EDGE_LOOP ( 'NONE', ( #197 ) ) ;
#307 = LOCAL_TIME ( 14, 56, 13.00000000000000000, #318 ) ;
#308 = DIRECTION ( 'NONE',  ( 0.0000000000000000000, 1.000000000000000000, 0.0000000000000000000 ) ) ;
#309 = DIRECTION ( 'NONE',  ( -4.275831445896958607E-31, -1.000000000000000000, -1.224646799147353207E-16 ) ) ;
#310 = EDGE_LOOP ( 'NONE', ( #279 ) ) ;
#311 = FACE_OUTER_BOUND ( 'NONE', #186, .T. ) ;
#312 = DIRECTION ( 'NONE',  ( 0.0000000000000000000, 1.000000000000000000, 0.0000000000000000000 ) ) ;
#313 = CARTESIAN_POINT ( 'NONE',  ( 1.396592535537253342E-14, -4.336808689942017736E-16, 4.000000000000000000 ) ) ;
#314 =( NAMED_UNIT ( * ) PLANE_ANGLE_UNIT ( ) SI_UNIT ( $, .RADIAN. ) );
#315 = PRODUCT_DEFINITION_SHAPE ( 'NONE', 'NONE',  #29 ) ;
#316 = PERSON_AND_ORGANIZATION ( #119, #244 ) ;
#317 = DIRECTION ( 'NONE',  ( 0.0000000000000000000, 1.000000000000000000, 0.0000000000000000000 ) ) ;
#318 = COORDINATED_UNIVERSAL_TIME_OFFSET ( 1, 0, .AHEAD. ) ;
#319 = FACE_OUTER_BOUND ( 'NONE', #267, .T. ) ;
#320 = CARTESIAN_POINT ( 'NONE',  ( 0.0000000000000000000, 0.0000000000000000000, 0.0000000000000000000 ) ) ;
#321 = AXIS2_PLACEMENT_3D ( 'NONE', #166, #329, #69 ) ;
#322 = CARTESIAN_POINT ( 'NONE',  ( 1.047444401652940007E-14, 0.9999999999999995559, 3.000000000000000000 ) ) ;
#323 = DIRECTION ( 'NONE',  ( -3.491481338843133355E-15, 1.224646799147353207E-16, -1.000000000000000000 ) ) ;
#324 = CONICAL_SURFACE ( 'NONE', #7, 2.949999999999999734, 0.2094395102393126762 ) ;
#325 = PLANE ( 'NONE',  #40 ) ;
#326 = ADVANCED_FACE ( 'NONE', ( #319, #54 ), #106, .T. ) ;
#327 = CARTESIAN_POINT ( 'NONE',  ( 1.920314736363723472E-13, 1.799711739194218455E-32, 55.00000000000000000 ) ) ;
#328 = EDGE_LOOP ( 'NONE', ( #252 ) ) ;
#329 = DIRECTION ( 'NONE',  ( 3.491481338843133355E-15, -1.224646799147353207E-16, 1.000000000000000000 ) ) ;
#330 = DIRECTION ( 'NONE',  ( -3.491481338843133355E-15, 1.224646799147353207E-16, -1.000000000000000000 ) ) ;
#331 = ORIENTED_EDGE ( 'NONE', *, *, #57, .T. ) ;
#332 = APPROVAL_PERSON_ORGANIZATION ( #289, #192, #213 ) ;
#333 = DIRECTION ( 'NONE',  ( 3.491481338843133355E-15, -1.224646799147353207E-16, 1.000000000000000000 ) ) ;
#334 = EDGE_LOOP ( 'NONE', ( #170 ) ) ;
#335 = CARTESIAN_POINT ( 'NONE',  ( 2.137183397710487667E-32, 0.9999999999999995559, 6.121136532892404794E-18 ) ) ;
#336 = DIRECTION ( 'NONE',  ( -3.491481338843133355E-15, 1.224646799147353207E-16, -1.000000000000000000 ) ) ;
#337 = DIRECTION ( 'NONE',  ( -3.491481338843133355E-15, 1.224646799147353207E-16, -1.000000000000000000 ) ) ;
#338 = AXIS2_PLACEMENT_3D ( 'NONE', #341, #286, #256 ) ;
#339 = CARTESIAN_POINT ( 'NONE',  ( 1.047444401652940007E-14, 0.9999999999999995559, 3.000000000000000000 ) ) ;
#340 = PERSON_AND_ORGANIZATION ( #119, #244 ) ;
#341 = CARTESIAN_POINT ( 'NONE',  ( 4.922988687768818031E-14, 4.461785353419020636E-32, 14.09999999999999964 ) ) ;
#342 = APPROVAL_STATUS ( 'not_yet_approved' ) ;
#343 = ADVANCED_FACE ( 'NONE', ( #300, #269 ), #324, .T. ) ;
ENDSEC;
END-ISO-10303-21;
