ISO-10303-21;
HEADER;
FILE_DESCRIPTION (( 'STEP AP203' ),
    '1' );
FILE_NAME ('384644.step',
    '2021-12-13T13:56:12',
    ( '' ),
    ( '' ),
    'SwSTEP 2.0',
    'SolidWorks 2019',
    '' );
FILE_SCHEMA (( 'CONFIG_CONTROL_DESIGN' ));
ENDSEC;

DATA;
#1 = AXIS2_PLACEMENT_3D ( 'NONE', #302, #197, #307 ) ;
#2 = AXIS2_PLACEMENT_3D ( 'NONE', #118, #40, #47 ) ;
#3 = FACE_OUTER_BOUND ( 'NONE', #129, .T. ) ;
#4 = CC_DESIGN_PERSON_AND_ORGANIZATION_ASSIGNMENT ( #160, #154, ( #222 ) ) ;
#5 = DIRECTION ( 'NONE',  ( 0.0000000000000000000, 1.000000000000000000, 0.0000000000000000000 ) ) ;
#6 = AXIS2_PLACEMENT_3D ( 'NONE', #126, #205, #234 ) ;
#7 = EDGE_LOOP ( 'NONE', ( #10 ) ) ;
#8 = DIRECTION ( 'NONE',  ( -3.491481338843133355E-15, 1.224646799147353207E-16, -1.000000000000000000 ) ) ;
#9 = EDGE_CURVE ( 'NONE', #139, #139, #18, .T. ) ;
#10 = ORIENTED_EDGE ( 'NONE', *, *, #112, .T. ) ;
#11 = ADVANCED_FACE ( 'NONE', ( #166, #330 ), #146, .T. ) ;
#12 = CARTESIAN_POINT ( 'NONE',  ( 1.815570296198429345E-14, -6.368163355566236381E-16, 5.200000000000000178 ) ) ;
#13 = ADVANCED_BREP_SHAPE_REPRESENTATION ( '384644', ( #78, #188, #319 ), #43 ) ;
#14 = ORIENTED_EDGE ( 'NONE', *, *, #21, .T. ) ;
#15 = FACE_OUTER_BOUND ( 'NONE', #244, .T. ) ;
#16 = ORIENTED_EDGE ( 'NONE', *, *, #194, .F. ) ;
#17 = APPLICATION_CONTEXT ( 'configuration controlled 3d designs of mechanical parts and assemblies' ) ;
#18 = CIRCLE ( 'NONE', #209, 0.9499999999999998446 ) ;
#19 = CC_DESIGN_APPROVAL ( #273, ( #214 ) ) ;
#20 = DIRECTION ( 'NONE',  ( -3.491481338843133355E-15, 1.224646799147353207E-16, -1.000000000000000000 ) ) ;
#21 = EDGE_CURVE ( 'NONE', #175, #175, #248, .T. ) ;
#22 = VERTEX_POINT ( 'NONE', #231 ) ;
#23 = AXIS2_PLACEMENT_3D ( 'NONE', #131, #239, #235 ) ;
#24 = DIRECTION ( 'NONE',  ( 0.0000000000000000000, 1.000000000000000000, 0.0000000000000000000 ) ) ;
#25 = CC_DESIGN_DATE_AND_TIME_ASSIGNMENT ( #275, #99, ( #123 ) ) ;
#26 = CARTESIAN_POINT ( 'NONE',  ( 0.0000000000000000000, 0.0000000000000000000, 0.0000000000000000000 ) ) ;
#27 = APPROVAL_DATE_TIME ( #30, #106 ) ;
#28 = EDGE_CURVE ( 'NONE', #201, #201, #37, .T. ) ;
#29 = ORGANIZATION ( 'UNSPECIFIED', 'UNSPECIFIED', '' ) ;
#30 = DATE_AND_TIME ( #321, #294 ) ;
#31 = ORIENTED_EDGE ( 'NONE', *, *, #112, .F. ) ;
#32 = DIRECTION ( 'NONE',  ( 4.275831445896958607E-31, 1.000000000000000000, 1.224646799147353207E-16 ) ) ;
#33 = DIRECTION ( 'NONE',  ( -3.491481338843133355E-15, 1.224646799147353207E-16, -1.000000000000000000 ) ) ;
#34 = APPLICATION_PROTOCOL_DEFINITION ( 'international standard', 'config_control_design', 1994, #309 ) ;
#35 = ORIENTED_EDGE ( 'NONE', *, *, #21, .F. ) ;
#36 = ORIENTED_EDGE ( 'NONE', *, *, #295, .T. ) ;
#37 = CIRCLE ( 'NONE', #340, 2.999999999999998668 ) ;
#38 = EDGE_CURVE ( 'NONE', #312, #312, #308, .T. ) ;
#39 = DIRECTION ( 'NONE',  ( 3.491481338843133355E-15, -1.224646799147353207E-16, 1.000000000000000000 ) ) ;
#40 = DIRECTION ( 'NONE',  ( -3.491481338843133355E-15, 1.224646799147353207E-16, -1.000000000000000000 ) ) ;
#41 = FACE_BOUND ( 'NONE', #109, .T. ) ;
#42 = CARTESIAN_POINT ( 'NONE',  ( 1.326762908760390517E-14, -4.336808689942017736E-16, 3.799999999999999378 ) ) ;
#43 =( GEOMETRIC_REPRESENTATION_CONTEXT ( 3 ) GLOBAL_UNCERTAINTY_ASSIGNED_CONTEXT ( ( #221 ) ) GLOBAL_UNIT_ASSIGNED_CONTEXT ( ( #277, #229, #337 ) ) REPRESENTATION_CONTEXT ( 'NONE', 'WORKASPACE' ) );
#44 = CARTESIAN_POINT ( 'NONE',  ( 1.899365848330664545E-13, 2.999999999999992450, 54.40000000000000568 ) ) ;
#45 = FACE_OUTER_BOUND ( 'NONE', #104, .T. ) ;
#46 = EDGE_CURVE ( 'NONE', #280, #280, #184, .T. ) ;
#47 = DIRECTION ( 'NONE',  ( 0.0000000000000000000, 1.000000000000000000, 0.0000000000000000000 ) ) ;
#48 = FACE_OUTER_BOUND ( 'NONE', #7, .T. ) ;
#49 = DIRECTION ( 'NONE',  ( -3.491481338843133355E-15, 1.224646799147353207E-16, -1.000000000000000000 ) ) ;
#50 = APPROVAL_STATUS ( 'not_yet_approved' ) ;
#51 = COORDINATED_UNIVERSAL_TIME_OFFSET ( 1, 0, .AHEAD. ) ;
#52 = CARTESIAN_POINT ( 'NONE',  ( 3.992032287124475514E-14, -1.400216437685369250E-15, 11.43363489505916775 ) ) ;
#53 = TOROIDAL_SURFACE ( 'NONE', #322, 2.949999999999999734, 2.000000000000000444 ) ;
#54 = CARTESIAN_POINT ( 'NONE',  ( 1.815570296198429345E-14, -6.368163355566236381E-16, 5.200000000000000178 ) ) ;
#55 = ADVANCED_FACE ( 'NONE', ( #45 ), #338, .T. ) ;
#56 = DIRECTION ( 'NONE',  ( 0.0000000000000000000, 0.0000000000000000000, 1.000000000000000000 ) ) ;
#57 = ORIENTED_EDGE ( 'NONE', *, *, #46, .T. ) ;
#58 = DIRECTION ( 'NONE',  ( 4.275831445896958607E-31, 1.000000000000000000, 1.224646799147353207E-16 ) ) ;
#59 = CIRCLE ( 'NONE', #246, 0.9499999999999995115 ) ;
#60 = LOCAL_TIME ( 14, 56, 12.00000000000000000, #51 ) ;
#61 = DIRECTION ( 'NONE',  ( 0.0000000000000000000, -1.000000000000000000, 0.0000000000000000000 ) ) ;
#62 = CARTESIAN_POINT ( 'NONE',  ( 1.471946866483887317E-14, -5.162894610090475170E-16, 4.215823381635491529 ) ) ;
#63 = DIRECTION ( 'NONE',  ( 0.0000000000000000000, -1.000000000000000000, 0.0000000000000000000 ) ) ;
#64 = EDGE_LOOP ( 'NONE', ( #263 ) ) ;
#65 = CALENDAR_DATE ( 2021, 13, 12 ) ;
#66 = ORIENTED_EDGE ( 'NONE', *, *, #208, .F. ) ;
#67 = AXIS2_PLACEMENT_3D ( 'NONE', #281, #20, #24 ) ;
#68 = FACE_OUTER_BOUND ( 'NONE', #137, .T. ) ;
#69 = APPROVAL_PERSON_ORGANIZATION ( #215, #106, #260 ) ;
#70 = PRODUCT_DEFINITION_SHAPE ( 'NONE', 'NONE',  #214 ) ;
#71 = DIRECTION ( 'NONE',  ( 3.491481338843133355E-15, -1.224646799147353207E-16, 1.000000000000000000 ) ) ;
#72 = APPLICATION_PROTOCOL_DEFINITION ( 'international standard', 'config_control_design', 1994, #17 ) ;
#73 = CC_DESIGN_PERSON_AND_ORGANIZATION_ASSIGNMENT ( #341, #255, ( #224 ) ) ;
#74 = MECHANICAL_CONTEXT ( 'NONE', #309, 'mechanical' ) ;
#75 = AXIS2_PLACEMENT_3D ( 'NONE', #54, #33, #191 ) ;
#76 = EDGE_LOOP ( 'NONE', ( #14 ) ) ;
#77 = DIRECTION ( 'NONE',  ( -3.491481338843133355E-15, 1.224646799147353207E-16, -1.000000000000000000 ) ) ;
#78 = MANIFOLD_SOLID_BREP ( 'Corps-Déplacer/Copier1[1]', #220 ) ;
#79 = PERSON_AND_ORGANIZATION ( #130, #29 ) ;
#80 = AXIS2_PLACEMENT_3D ( 'NONE', #310, #173, #270 ) ;
#81 = CARTESIAN_POINT ( 'NONE',  ( 1.012529588264508515E-14, 7.123858967643818163E-33, 2.899999999999999911 ) ) ;
#82 = CARTESIAN_POINT ( 'NONE',  ( 0.0000000000000000000, 0.0000000000000000000, 0.0000000000000000000 ) ) ;
#83 = EDGE_LOOP ( 'NONE', ( #325 ) ) ;
#84 = CC_DESIGN_PERSON_AND_ORGANIZATION_ASSIGNMENT ( #79, #183, ( #222 ) ) ;
#85 = CARTESIAN_POINT ( 'NONE',  ( 0.0000000000000000000, 0.0000000000000000000, 0.0000000000000000000 ) ) ;
#86 = AXIS2_PLACEMENT_3D ( 'NONE', #26, #316, #252 ) ;
#87 = ORIENTED_EDGE ( 'NONE', *, *, #28, .F. ) ;
#88 = CC_DESIGN_PERSON_AND_ORGANIZATION_ASSIGNMENT ( #287, #259, ( #214 ) ) ;
#89 = EDGE_LOOP ( 'NONE', ( #87 ) ) ;
#90 = COORDINATED_UNIVERSAL_TIME_OFFSET ( 1, 0, .AHEAD. ) ;
#91 = CARTESIAN_POINT ( 'NONE',  ( 1.815570296198429345E-14, 1.202897996607957154, 5.200000000000000178 ) ) ;
#92 = ORIENTED_EDGE ( 'NONE', *, *, #28, .T. ) ;
#93 = DIRECTION ( 'NONE',  ( 1.000000000000000000, 0.0000000000000000000, 0.0000000000000000000 ) ) ;
#94 = ORIENTED_EDGE ( 'NONE', *, *, #101, .T. ) ;
#95 = FACE_OUTER_BOUND ( 'NONE', #76, .T. ) ;
#96 = CALENDAR_DATE ( 2021, 13, 12 ) ;
#97 = DIRECTION ( 'NONE',  ( 4.329478505297483514E-31, 1.000000000000000000, 1.224646799147353207E-16 ) ) ;
#98 = AXIS2_PLACEMENT_3D ( 'NONE', #12, #304, #63 ) ;
#99 = DATE_TIME_ROLE ( 'classification_date' ) ;
#100 = APPROVAL_DATE_TIME ( #156, #279 ) ;
#101 = EDGE_CURVE ( 'NONE', #141, #141, #333, .T. ) ;
#102 = AXIS2_PLACEMENT_3D ( 'NONE', #145, #39, #228 ) ;
#103 = DATE_TIME_ROLE ( 'creation_date' ) ;
#104 = EDGE_LOOP ( 'NONE', ( #290 ) ) ;
#105 = CYLINDRICAL_SURFACE ( 'NONE', #227, 2.949999999999999289 ) ;
#106 = APPROVAL ( #50, 'UNSPECIFIED' ) ;
#107 = ORIENTED_EDGE ( 'NONE', *, *, #116, .F. ) ;
#108 = PLANE ( 'NONE',  #113 ) ;
#109 = EDGE_LOOP ( 'NONE', ( #35 ) ) ;
#110 = DIRECTION ( 'NONE',  ( -3.491481338843133355E-15, 1.224646799147353207E-16, -1.000000000000000000 ) ) ;
#111 = EDGE_LOOP ( 'NONE', ( #92 ) ) ;
#112 = EDGE_CURVE ( 'NONE', #114, #114, #249, .T. ) ;
#113 = AXIS2_PLACEMENT_3D ( 'NONE', #81, #185, #238 ) ;
#114 = VERTEX_POINT ( 'NONE', #223 ) ;
#115 = DIRECTION ( 'NONE',  ( 0.0000000000000000000, 1.000000000000000000, 0.0000000000000000000 ) ) ;
#116 = EDGE_CURVE ( 'NONE', #329, #329, #147, .T. ) ;
#117 = EDGE_LOOP ( 'NONE', ( #16 ) ) ;
#118 = CARTESIAN_POINT ( 'NONE',  ( 3.992032287124475514E-14, -1.400216437685369250E-15, 11.43363489505916775 ) ) ;
#119 = CIRCLE ( 'NONE', #23, 2.399999999999999467 ) ;
#120 = CARTESIAN_POINT ( 'NONE',  ( 1.326762908760390675E-14, 0.9499999999999995115, 3.799999999999999822 ) ) ;
#121 = ADVANCED_FACE ( 'NONE', ( #300, #219 ), #105, .T. ) ;
#122 = DIRECTION ( 'NONE',  ( 0.0000000000000000000, 1.000000000000000000, 0.0000000000000000000 ) ) ;
#123 = SECURITY_CLASSIFICATION ( '', '', #266 ) ;
#124 = APPROVAL_DATE_TIME ( #314, #273 ) ;
#125 = DIRECTION ( 'NONE',  ( 3.491481338843133355E-15, -1.224646799147353207E-16, 1.000000000000000000 ) ) ;
#126 = CARTESIAN_POINT ( 'NONE',  ( 4.957903501157248733E-14, -1.738998454789241549E-15, 14.19999999999999929 ) ) ;
#127 = PERSON_AND_ORGANIZATION ( #130, #29 ) ;
#128 = CIRCLE ( 'NONE', #237, 0.9499999999999999556 ) ;
#129 = EDGE_LOOP ( 'NONE', ( #186 ) ) ;
#130 = PERSON ( 'UNSPECIFIED', 'UNSPECIFIED', 'UNSPECIFIED', ('UNSPECIFIED'), ('UNSPECIFIED'), ('UNSPECIFIED') ) ;
#131 = CARTESIAN_POINT ( 'NONE',  ( 1.920314736363723472E-13, -6.735557395310442615E-15, 55.00000000000000000 ) ) ;
#132 = CARTESIAN_POINT ( 'NONE',  ( 1.815570296198429345E-14, -6.368163355566236381E-16, 5.200000000000000178 ) ) ;
#133 = CONICAL_SURFACE ( 'NONE', #98, 1.202897996607957820, 0.2094395102393064312 ) ;
#134 = FACE_BOUND ( 'NONE', #299, .T. ) ;
#135 = ORIENTED_EDGE ( 'NONE', *, *, #9, .F. ) ;
#136 = ADVANCED_FACE ( 'NONE', ( #134, #182 ), #203, .T. ) ;
#137 = EDGE_LOOP ( 'NONE', ( #66 ) ) ;
#138 = CC_DESIGN_DATE_AND_TIME_ASSIGNMENT ( #261, #103, ( #214 ) ) ;
#139 = VERTEX_POINT ( 'NONE', #311 ) ;
#140 = LOCAL_TIME ( 14, 56, 12.00000000000000000, #342 ) ;
#141 = VERTEX_POINT ( 'NONE', #148 ) ;
#142 = CARTESIAN_POINT ( 'NONE',  ( 2.137183397710479182E-32, 0.9499999999999995115, 6.121136532892404794E-18 ) ) ;
#143 = CARTESIAN_POINT ( 'NONE',  ( 1.899365848330664545E-13, -6.662078587361601684E-15, 54.40000000000000568 ) ) ;
#144 = ADVANCED_FACE ( 'NONE', ( #159 ), #108, .F. ) ;
#145 = CARTESIAN_POINT ( 'NONE',  ( 4.957903501157248733E-14, 4.461785353419018994E-32, 14.19999999999999929 ) ) ;
#146 = CONICAL_SURFACE ( 'NONE', #1, 2.399999999999999467, 0.7853981633974508325 ) ;
#147 = CIRCLE ( 'NONE', #242, 1.202897996607957820 ) ;
#148 = CARTESIAN_POINT ( 'NONE',  ( 4.957903501157248733E-14, 2.949999999999997957, 14.19999999999999929 ) ) ;
#149 = DIRECTION ( 'NONE',  ( 3.491481338843133355E-15, -1.224646799147353207E-16, 1.000000000000000000 ) ) ;
#150 = SHAPE_DEFINITION_REPRESENTATION ( #70, #13 ) ;
#151 = FACE_BOUND ( 'NONE', #297, .T. ) ;
#152 = AXIS2_PLACEMENT_3D ( 'NONE', #298, #164, #58 ) ;
#153 = PLANE ( 'NONE',  #256 ) ;
#154 = PERSON_AND_ORGANIZATION_ROLE ( 'creator' ) ;
#155 = ORIENTED_EDGE ( 'NONE', *, *, #101, .F. ) ;
#156 = DATE_AND_TIME ( #291, #140 ) ;
#157 = ORIENTED_EDGE ( 'NONE', *, *, #38, .F. ) ;
#158 = CC_DESIGN_APPROVAL ( #279, ( #123 ) ) ;
#159 = FACE_OUTER_BOUND ( 'NONE', #326, .T. ) ;
#160 = PERSON_AND_ORGANIZATION ( #130, #29 ) ;
#161 = LOCAL_TIME ( 14, 56, 12.00000000000000000, #230 ) ;
#162 = ADVANCED_FACE ( 'NONE', ( #324, #3 ), #243, .T. ) ;
#163 = EDGE_LOOP ( 'NONE', ( #323 ) ) ;
#164 = DIRECTION ( 'NONE',  ( -3.491481338843133355E-15, 1.224646799147353207E-16, -1.000000000000000000 ) ) ;
#165 = DIRECTION ( 'NONE',  ( -3.491481338843133355E-15, 1.224646799147353207E-16, -1.000000000000000000 ) ) ;
#166 = FACE_OUTER_BOUND ( 'NONE', #89, .T. ) ;
#167 = PERSON_AND_ORGANIZATION_ROLE ( 'classification_officer' ) ;
#168 = CC_DESIGN_SECURITY_CLASSIFICATION ( #123, ( #222 ) ) ;
#169 = VERTEX_POINT ( 'NONE', #142 ) ;
#170 = EDGE_LOOP ( 'NONE', ( #57 ) ) ;
#171 = CARTESIAN_POINT ( 'NONE',  ( 1.471946866483887317E-14, 0.9937047985323816945, 4.215823381635491529 ) ) ;
#172 = EDGE_LOOP ( 'NONE', ( #94 ) ) ;
#173 = DIRECTION ( 'NONE',  ( -3.491481338843133355E-15, 1.224646799147353207E-16, -1.000000000000000000 ) ) ;
#174 = DIRECTION ( 'NONE',  ( 0.0000000000000000000, 1.000000000000000000, 0.0000000000000000000 ) ) ;
#175 = VERTEX_POINT ( 'NONE', #171 ) ;
#176 = DIRECTION ( 'NONE',  ( -3.491481338843133355E-15, 1.224646799147353207E-16, -1.000000000000000000 ) ) ;
#177 = DIRECTION ( 'NONE',  ( -3.491481338843133355E-15, 1.224646799147353207E-16, -1.000000000000000000 ) ) ;
#178 = APPROVAL_STATUS ( 'not_yet_approved' ) ;
#179 = FACE_OUTER_BOUND ( 'NONE', #170, .T. ) ;
#180 = APPROVAL_STATUS ( 'not_yet_approved' ) ;
#181 = EDGE_LOOP ( 'NONE', ( #157 ) ) ;
#182 = FACE_OUTER_BOUND ( 'NONE', #332, .T. ) ;
#183 = PERSON_AND_ORGANIZATION_ROLE ( 'design_supplier' ) ;
#184 = CIRCLE ( 'NONE', #67, 0.9499999999999998446 ) ;
#185 = DIRECTION ( 'NONE',  ( 3.491481338843133355E-15, -1.224646799147353207E-16, 1.000000000000000000 ) ) ;
#186 = ORIENTED_EDGE ( 'NONE', *, *, #208, .T. ) ;
#187 = ADVANCED_FACE ( 'NONE', ( #265 ), #271, .F. ) ;
#188 = MANIFOLD_SOLID_BREP ( 'Corps-Déplacer/Copier1[2]', #210 ) ;
#189 = ORIENTED_EDGE ( 'NONE', *, *, #9, .T. ) ;
#190 = AXIS2_PLACEMENT_3D ( 'NONE', #62, #165, #272 ) ;
#191 = DIRECTION ( 'NONE',  ( 0.0000000000000000000, 1.000000000000000000, 0.0000000000000000000 ) ) ;
#192 = PRODUCT_RELATED_PRODUCT_CATEGORY ( 'detail', '', ( #224 ) ) ;
#193 = EDGE_LOOP ( 'NONE', ( #155 ) ) ;
#194 = EDGE_CURVE ( 'NONE', #334, #334, #119, .T. ) ;
#195 = PLANE ( 'NONE',  #102 ) ;
#196 = AXIS2_PLACEMENT_3D ( 'NONE', #315, #71, #207 ) ;
#197 = DIRECTION ( 'NONE',  ( -3.491481338843133355E-15, 1.224646799147353207E-16, -1.000000000000000000 ) ) ;
#198 = FACE_OUTER_BOUND ( 'NONE', #111, .T. ) ;
#199 = CARTESIAN_POINT ( 'NONE',  ( -3.848321533831061110E-31, 1.349809490907258218E-32, -1.102203093861061018E-16 ) ) ;
#200 = PERSON_AND_ORGANIZATION ( #130, #29 ) ;
#201 = VERTEX_POINT ( 'NONE', #44 ) ;
#202 = CARTESIAN_POINT ( 'NONE',  ( -1.924160766915530555E-31, 6.749047454536291089E-33, -5.511015469305305091E-17 ) ) ;
#203 = CONICAL_SURFACE ( 'NONE', #283, 2.949999999999999734, 0.2094395102393125097 ) ;
#204 = CARTESIAN_POINT ( 'NONE',  ( 4.957903501157248733E-14, -1.738998454789241549E-15, 14.19999999999999929 ) ) ;
#205 = DIRECTION ( 'NONE',  ( -3.491481338843133355E-15, 1.224646799147353207E-16, -1.000000000000000000 ) ) ;
#206 = FACE_OUTER_BOUND ( 'NONE', #296, .T. ) ;
#207 = DIRECTION ( 'NONE',  ( -4.275831445896958607E-31, -1.000000000000000000, -1.224646799147353207E-16 ) ) ;
#208 = EDGE_CURVE ( 'NONE', #225, #225, #128, .T. ) ;
#209 = AXIS2_PLACEMENT_3D ( 'NONE', #305, #278, #115 ) ;
#210 = CLOSED_SHELL ( 'NONE', ( #212, #247, #55 ) ) ;
#211 = AXIS2_PLACEMENT_3D ( 'NONE', #320, #77, #32 ) ;
#212 = ADVANCED_FACE ( 'NONE', ( #206 ), #153, .F. ) ;
#213 = COORDINATED_UNIVERSAL_TIME_OFFSET ( 1, 0, .AHEAD. ) ;
#214 = PRODUCT_DEFINITION ( 'UNKNOWN', '', #222, #303 ) ;
#215 = PERSON_AND_ORGANIZATION ( #130, #29 ) ;
#216 = ORIENTED_EDGE ( 'NONE', *, *, #254, .T. ) ;
#217 = DIRECTION ( 'NONE',  ( 4.275831445896958607E-31, 1.000000000000000000, 1.224646799147353454E-16 ) ) ;
#218 = EDGE_LOOP ( 'NONE', ( #135 ) ) ;
#219 = FACE_OUTER_BOUND ( 'NONE', #172, .T. ) ;
#220 = CLOSED_SHELL ( 'NONE', ( #144, #162, #251, #343, #292, #136, #121, #301, #328, #11, #187 ) ) ;
#221 = UNCERTAINTY_MEASURE_WITH_UNIT (LENGTH_MEASURE( 1.000000000000000082E-05 ), #277, 'distance_accuracy_value', 'NONE');
#222 = PRODUCT_DEFINITION_FORMATION_WITH_SPECIFIED_SOURCE ( 'ANY', '', #224, .NOT_KNOWN. ) ;
#223 = CARTESIAN_POINT ( 'NONE',  ( 1.815570296198429345E-14, 1.624999999999999334, 5.200000000000000178 ) ) ;
#224 = PRODUCT ( '384644', '384644', '', ( #74 ) ) ;
#225 = VERTEX_POINT ( 'NONE', #120 ) ;
#226 = FACE_OUTER_BOUND ( 'NONE', #83, .T. ) ;
#227 = AXIS2_PLACEMENT_3D ( 'NONE', #85, #8, #217 ) ;
#228 = DIRECTION ( 'NONE',  ( -4.275831445896958607E-31, -1.000000000000000000, -1.224646799147353207E-16 ) ) ;
#229 =( NAMED_UNIT ( * ) PLANE_ANGLE_UNIT ( ) SI_UNIT ( $, .RADIAN. ) );
#230 = COORDINATED_UNIVERSAL_TIME_OFFSET ( 1, 0, .AHEAD. ) ;
#231 = CARTESIAN_POINT ( 'NONE',  ( 4.957903501157248733E-14, 2.999999999999992450, 14.19999999999999929 ) ) ;
#232 = AXIS2_PLACEMENT_3D ( 'NONE', #233, #125, #236 ) ;
#233 = CARTESIAN_POINT ( 'NONE',  ( 1.012529588264508515E-14, 7.123858967643818163E-33, 2.899999999999999911 ) ) ;
#234 = DIRECTION ( 'NONE',  ( 0.0000000000000000000, 1.000000000000000000, 0.0000000000000000000 ) ) ;
#235 = DIRECTION ( 'NONE',  ( 0.0000000000000000000, 1.000000000000000000, 0.0000000000000000000 ) ) ;
#236 = DIRECTION ( 'NONE',  ( -4.275831445896958607E-31, -1.000000000000000000, -1.224646799147353207E-16 ) ) ;
#237 = AXIS2_PLACEMENT_3D ( 'NONE', #284, #49, #122 ) ;
#238 = DIRECTION ( 'NONE',  ( -4.275831445896958607E-31, -1.000000000000000000, -1.224646799147353207E-16 ) ) ;
#239 = DIRECTION ( 'NONE',  ( -3.491481338843133355E-15, 1.224646799147353207E-16, -1.000000000000000000 ) ) ;
#240 = CALENDAR_DATE ( 2021, 13, 12 ) ;
#241 = ORIENTED_EDGE ( 'NONE', *, *, #38, .T. ) ;
#242 = AXIS2_PLACEMENT_3D ( 'NONE', #132, #110, #5 ) ;
#243 = CYLINDRICAL_SURFACE ( 'NONE', #152, 0.9499999999999998446 ) ;
#244 = EDGE_LOOP ( 'NONE', ( #216 ) ) ;
#245 = EDGE_LOOP ( 'NONE', ( #267 ) ) ;
#246 = AXIS2_PLACEMENT_3D ( 'NONE', #199, #177, #318 ) ;
#247 = ADVANCED_FACE ( 'NONE', ( #286, #179 ), #335, .T. ) ;
#248 = CIRCLE ( 'NONE', #190, 0.9937047985323821386 ) ;
#249 = CIRCLE ( 'NONE', #75, 1.625000000000000000 ) ;
#250 = CC_DESIGN_APPROVAL ( #106, ( #222 ) ) ;
#251 = ADVANCED_FACE ( 'NONE', ( #95, #68 ), #53, .F. ) ;
#252 = DIRECTION ( 'NONE',  ( 4.275831445896958607E-31, 1.000000000000000000, 1.224646799147353207E-16 ) ) ;
#253 = CARTESIAN_POINT ( 'NONE',  ( 1.920314736363723472E-13, 2.399999999999992362, 55.00000000000000000 ) ) ;
#254 = EDGE_CURVE ( 'NONE', #22, #22, #288, .T. ) ;
#255 = PERSON_AND_ORGANIZATION_ROLE ( 'design_owner' ) ;
#256 = AXIS2_PLACEMENT_3D ( 'NONE', #202, #149, #282 ) ;
#257 = PLANE ( 'NONE',  #196 ) ;
#258 = APPROVAL_ROLE ( '' ) ;
#259 = PERSON_AND_ORGANIZATION_ROLE ( 'creator' ) ;
#260 = APPROVAL_ROLE ( '' ) ;
#261 = DATE_AND_TIME ( #240, #60 ) ;
#262 = LOCAL_TIME ( 14, 56, 12.00000000000000000, #90 ) ;
#263 = ORIENTED_EDGE ( 'NONE', *, *, #194, .T. ) ;
#264 = CC_DESIGN_PERSON_AND_ORGANIZATION_ASSIGNMENT ( #127, #167, ( #123 ) ) ;
#265 = FACE_OUTER_BOUND ( 'NONE', #117, .T. ) ;
#266 = SECURITY_CLASSIFICATION_LEVEL ( 'unclassified' ) ;
#267 = ORIENTED_EDGE ( 'NONE', *, *, #116, .T. ) ;
#268 = AXIS2_PLACEMENT_3D ( 'NONE', #204, #176, #293 ) ;
#269 = DIRECTION ( 'NONE',  ( 3.491481338843133355E-15, -1.224646799147353207E-16, 1.000000000000000000 ) ) ;
#270 = DIRECTION ( 'NONE',  ( 4.275831445896958607E-31, 1.000000000000000000, 1.224646799147353207E-16 ) ) ;
#271 = PLANE ( 'NONE',  #211 ) ;
#272 = DIRECTION ( 'NONE',  ( 0.0000000000000000000, 1.000000000000000000, 0.0000000000000000000 ) ) ;
#273 = APPROVAL ( #178, 'UNSPECIFIED' ) ;
#274 = CARTESIAN_POINT ( 'NONE',  ( 1.012529588264508515E-14, 0.9499999999999995115, 2.899999999999999911 ) ) ;
#275 = DATE_AND_TIME ( #65, #262 ) ;
#276 = APPROVAL_PERSON_ORGANIZATION ( #200, #273, #289 ) ;
#277 =( LENGTH_UNIT ( ) NAMED_UNIT ( * ) SI_UNIT ( .MILLI., .METRE. ) );
#278 = DIRECTION ( 'NONE',  ( -3.491481338843133355E-15, 1.224646799147353207E-16, -1.000000000000000000 ) ) ;
#279 = APPROVAL ( #180, 'UNSPECIFIED' ) ;
#280 = VERTEX_POINT ( 'NONE', #274 ) ;
#281 = CARTESIAN_POINT ( 'NONE',  ( 1.012529588264508515E-14, -3.551475717527323832E-16, 2.899999999999999911 ) ) ;
#282 = DIRECTION ( 'NONE',  ( -4.275831445896958607E-31, -1.000000000000000000, -1.224646799147353207E-16 ) ) ;
#283 = AXIS2_PLACEMENT_3D ( 'NONE', #52, #269, #61 ) ;
#284 = CARTESIAN_POINT ( 'NONE',  ( 1.326762908760390675E-14, -4.653657836759942730E-16, 3.799999999999999822 ) ) ;
#285 = DIRECTION ( 'NONE',  ( -3.491481338843133355E-15, 1.224646799147353207E-16, -1.000000000000000000 ) ) ;
#286 = FACE_OUTER_BOUND ( 'NONE', #163, .T. ) ;
#287 = PERSON_AND_ORGANIZATION ( #130, #29 ) ;
#288 = CIRCLE ( 'NONE', #6, 2.999999999999993783 ) ;
#289 = APPROVAL_ROLE ( '' ) ;
#290 = ORIENTED_EDGE ( 'NONE', *, *, #46, .F. ) ;
#291 = CALENDAR_DATE ( 2021, 13, 12 ) ;
#292 = ADVANCED_FACE ( 'NONE', ( #151, #48 ), #257, .F. ) ;
#293 = DIRECTION ( 'NONE',  ( 0.0000000000000000000, 1.000000000000000000, 0.0000000000000000000 ) ) ;
#294 = LOCAL_TIME ( 14, 56, 12.00000000000000000, #213 ) ;
#295 = EDGE_CURVE ( 'NONE', #169, #169, #59, .T. ) ;
#296 = EDGE_LOOP ( 'NONE', ( #36 ) ) ;
#297 = EDGE_LOOP ( 'NONE', ( #107 ) ) ;
#298 = CARTESIAN_POINT ( 'NONE',  ( 0.0000000000000000000, 0.0000000000000000000, 0.0000000000000000000 ) ) ;
#299 = EDGE_LOOP ( 'NONE', ( #31 ) ) ;
#300 = FACE_OUTER_BOUND ( 'NONE', #181, .T. ) ;
#301 = ADVANCED_FACE ( 'NONE', ( #306, #15 ), #195, .F. ) ;
#302 = CARTESIAN_POINT ( 'NONE',  ( 1.920314736363723472E-13, -6.735557395310442615E-15, 55.00000000000000000 ) ) ;
#303 = DESIGN_CONTEXT ( 'detailed design', #17, 'design' ) ;
#304 = DIRECTION ( 'NONE',  ( 3.491481338843133355E-15, -1.224646799147353207E-16, 1.000000000000000000 ) ) ;
#305 = CARTESIAN_POINT ( 'NONE',  ( 1.012529588264508515E-14, -3.551475717527323832E-16, 2.899999999999999911 ) ) ;
#306 = FACE_BOUND ( 'NONE', #193, .T. ) ;
#307 = DIRECTION ( 'NONE',  ( 0.0000000000000000000, 1.000000000000000000, 0.0000000000000000000 ) ) ;
#308 = CIRCLE ( 'NONE', #2, 2.949999999999999734 ) ;
#309 = APPLICATION_CONTEXT ( 'configuration controlled 3d designs of mechanical parts and assemblies' ) ;
#310 = CARTESIAN_POINT ( 'NONE',  ( 0.0000000000000000000, 0.0000000000000000000, 0.0000000000000000000 ) ) ;
#311 = CARTESIAN_POINT ( 'NONE',  ( 1.012529588264508515E-14, 0.9499999999999995115, 2.899999999999999911 ) ) ;
#312 = VERTEX_POINT ( 'NONE', #331 ) ;
#313 = APPROVAL_PERSON_ORGANIZATION ( #317, #279, #258 ) ;
#314 = DATE_AND_TIME ( #96, #161 ) ;
#315 = CARTESIAN_POINT ( 'NONE',  ( 1.815570296198429345E-14, 2.120583842391325777E-32, 5.200000000000000178 ) ) ;
#316 = DIRECTION ( 'NONE',  ( -3.491481338843133355E-15, 1.224646799147353207E-16, -1.000000000000000000 ) ) ;
#317 = PERSON_AND_ORGANIZATION ( #130, #29 ) ;
#318 = DIRECTION ( 'NONE',  ( 4.275831445896958607E-31, 1.000000000000000000, 1.224646799147353454E-16 ) ) ;
#319 = AXIS2_PLACEMENT_3D ( 'NONE', #82, #56, #93 ) ;
#320 = CARTESIAN_POINT ( 'NONE',  ( 1.920314736363723472E-13, 1.799711739194218455E-32, 55.00000000000000000 ) ) ;
#321 = CALENDAR_DATE ( 2021, 13, 12 ) ;
#322 = AXIS2_PLACEMENT_3D ( 'NONE', #42, #339, #97 ) ;
#323 = ORIENTED_EDGE ( 'NONE', *, *, #295, .F. ) ;
#324 = FACE_OUTER_BOUND ( 'NONE', #218, .T. ) ;
#325 = ORIENTED_EDGE ( 'NONE', *, *, #254, .F. ) ;
#326 = EDGE_LOOP ( 'NONE', ( #189 ) ) ;
#327 = FACE_OUTER_BOUND ( 'NONE', #245, .T. ) ;
#328 = ADVANCED_FACE ( 'NONE', ( #226, #198 ), #336, .T. ) ;
#329 = VERTEX_POINT ( 'NONE', #91 ) ;
#330 = FACE_BOUND ( 'NONE', #64, .T. ) ;
#331 = CARTESIAN_POINT ( 'NONE',  ( 3.992032287124475514E-14, 2.949999999999998845, 11.43363489505916775 ) ) ;
#332 = EDGE_LOOP ( 'NONE', ( #241 ) ) ;
#333 = CIRCLE ( 'NONE', #268, 2.949999999999999289 ) ;
#334 = VERTEX_POINT ( 'NONE', #253 ) ;
#335 = CYLINDRICAL_SURFACE ( 'NONE', #86, 0.9499999999999996225 ) ;
#336 = CYLINDRICAL_SURFACE ( 'NONE', #80, 2.999999999999996447 ) ;
#337 =( NAMED_UNIT ( * ) SI_UNIT ( $, .STERADIAN. ) SOLID_ANGLE_UNIT ( ) );
#338 = PLANE ( 'NONE',  #232 ) ;
#339 = DIRECTION ( 'NONE',  ( -3.491481338843133355E-15, 1.224646799147353207E-16, -1.000000000000000000 ) ) ;
#340 = AXIS2_PLACEMENT_3D ( 'NONE', #143, #285, #174 ) ;
#341 = PERSON_AND_ORGANIZATION ( #130, #29 ) ;
#342 = COORDINATED_UNIVERSAL_TIME_OFFSET ( 1, 0, .AHEAD. ) ;
#343 = ADVANCED_FACE ( 'NONE', ( #41, #327 ), #133, .T. ) ;
ENDSEC;
END-ISO-10303-21;
