ISO-10303-21;
HEADER;
FILE_DESCRIPTION (( 'STEP AP203' ),
    '1' );
FILE_NAME ('384642.step',
    '2021-12-13T13:56:11',
    ( '' ),
    ( '' ),
    'SwSTEP 2.0',
    'SolidWorks 2019',
    '' );
FILE_SCHEMA (( 'CONFIG_CONTROL_DESIGN' ));
ENDSEC;

DATA;
#1 = AXIS2_PLACEMENT_3D ( 'NONE', #12, #162, #240 ) ;
#2 = DIRECTION ( 'NONE',  ( -3.491481338843133355E-15, 1.225678153645275576E-16, -1.000000000000000000 ) ) ;
#3 = ADVANCED_FACE ( 'NONE', ( #91 ), #17, .F. ) ;
#4 = VERTEX_POINT ( 'NONE', #11 ) ;
#5 = FACE_OUTER_BOUND ( 'NONE', #303, .T. ) ;
#6 = ORGANIZATION ( 'UNSPECIFIED', 'UNSPECIFIED', '' ) ;
#7 = ADVANCED_BREP_SHAPE_REPRESENTATION ( '384642', ( #304, #86, #72 ), #302 ) ;
#8 = COORDINATED_UNIVERSAL_TIME_OFFSET ( 1, 0, .AHEAD. ) ;
#9 = DIRECTION ( 'NONE',  ( 3.491481338843133355E-15, -1.224646799147353207E-16, 1.000000000000000000 ) ) ;
#10 = DIRECTION ( 'NONE',  ( 3.491481338843133355E-15, -1.225678153645275576E-16, 1.000000000000000000 ) ) ;
#11 = CARTESIAN_POINT ( 'NONE',  ( 9.426999614876463215E-15, -0.9000000000000002442, 2.700000000000001066 ) ) ;
#12 = CARTESIAN_POINT ( 'NONE',  ( -1.817264980768106546E-31, 6.374107508870825318E-33, -5.204853769518466234E-17 ) ) ;
#13 = APPROVAL_DATE_TIME ( #35, #52 ) ;
#14 = AXIS2_PLACEMENT_3D ( 'NONE', #318, #98, #46 ) ;
#15 = CARTESIAN_POINT ( 'NONE',  ( 1.361677722148822166E-14, -1.350000000000000533, 3.900000000000000799 ) ) ;
#16 = DIRECTION ( 'NONE',  ( 0.0000000000000000000, -1.000000000000000000, 0.0000000000000000000 ) ) ;
#17 = PLANE ( 'NONE',  #1 ) ;
#18 = APPROVAL_PERSON_ORGANIZATION ( #57, #111, #189 ) ;
#19 = FACE_OUTER_BOUND ( 'NONE', #257, .T. ) ;
#20 = APPROVAL_DATE_TIME ( #317, #92 ) ;
#21 = FACE_BOUND ( 'NONE', #314, .T. ) ;
#22 = AXIS2_PLACEMENT_3D ( 'NONE', #50, #202, #174 ) ;
#23 = AXIS2_PLACEMENT_3D ( 'NONE', #300, #298, #322 ) ;
#24 = CARTESIAN_POINT ( 'NONE',  ( 1.256933281983528008E-14, -4.336808689942017736E-16, 3.600000000000000089 ) ) ;
#25 = DIRECTION ( 'NONE',  ( -4.279432400880186472E-31, -1.000000000000000000, -1.225678153645275576E-16 ) ) ;
#26 = AXIS2_PLACEMENT_3D ( 'NONE', #283, #10, #290 ) ;
#27 = EDGE_LOOP ( 'NONE', ( #96 ) ) ;
#28 = APPROVAL_STATUS ( 'not_yet_approved' ) ;
#29 = CARTESIAN_POINT ( 'NONE',  ( 1.899365848330664545E-13, -6.662016706091726628E-15, 54.40000000000000568 ) ) ;
#30 = ORIENTED_EDGE ( 'NONE', *, *, #218, .F. ) ;
#31 = DIRECTION ( 'NONE',  ( 3.491481338843133355E-15, -1.225678153645275576E-16, 1.000000000000000000 ) ) ;
#32 = CARTESIAN_POINT ( 'NONE',  ( 1.256933281983527692E-14, -0.9000000000000005773, 3.599999999999999201 ) ) ;
#33 = ORIENTED_EDGE ( 'NONE', *, *, #176, .T. ) ;
#34 = APPROVAL_DATE_TIME ( #212, #111 ) ;
#35 = DATE_AND_TIME ( #133, #88 ) ;
#36 = PERSON_AND_ORGANIZATION ( #123, #6 ) ;
#37 = EDGE_LOOP ( 'NONE', ( #206 ) ) ;
#38 = SHAPE_DEFINITION_REPRESENTATION ( #295, #7 ) ;
#39 = VERTEX_POINT ( 'NONE', #233 ) ;
#40 = AXIS2_PLACEMENT_3D ( 'NONE', #312, #145, #291 ) ;
#41 = ORIENTED_EDGE ( 'NONE', *, *, #176, .F. ) ;
#42 = CYLINDRICAL_SURFACE ( 'NONE', #119, 2.999999999999996447 ) ;
#43 = CARTESIAN_POINT ( 'NONE',  ( 1.920314736363723472E-13, -6.735557395310442615E-15, 55.00000000000000000 ) ) ;
#44 = PERSON_AND_ORGANIZATION ( #123, #6 ) ;
#45 = CIRCLE ( 'NONE', #95, 1.350000000000000089 ) ;
#46 = DIRECTION ( 'NONE',  ( -4.279432400880186472E-31, -1.000000000000000000, -1.225678153645275576E-16 ) ) ;
#47 = SECURITY_CLASSIFICATION ( '', '', #294 ) ;
#48 = DIRECTION ( 'NONE',  ( -4.333626879254185919E-31, -1.000000000000000000, -1.225678153645275576E-16 ) ) ;
#49 = PRODUCT ( '384642', '384642', '', ( #321 ) ) ;
#50 = CARTESIAN_POINT ( 'NONE',  ( 1.920314736363723472E-13, -6.735557395310442615E-15, 55.00000000000000000 ) ) ;
#51 = CARTESIAN_POINT ( 'NONE',  ( 4.957903501157248102E-14, -1.734790528437717811E-15, 14.19999999999999751 ) ) ;
#52 = APPROVAL ( #80, 'UNSPECIFIED' ) ;
#53 = DIRECTION ( 'NONE',  ( 4.275831445896958607E-31, 1.000000000000000000, 1.224646799147353207E-16 ) ) ;
#54 = ORIENTED_EDGE ( 'NONE', *, *, #70, .T. ) ;
#55 = CARTESIAN_POINT ( 'NONE',  ( 1.361677722148822166E-14, -4.723420301830843895E-16, 3.900000000000000799 ) ) ;
#56 = ORIENTED_EDGE ( 'NONE', *, *, #239, .T. ) ;
#57 = PERSON_AND_ORGANIZATION ( #123, #6 ) ;
#58 = CARTESIAN_POINT ( 'NONE',  ( 1.920314736363723472E-13, -6.735557395310442615E-15, 55.00000000000000000 ) ) ;
#59 = VERTEX_POINT ( 'NONE', #182 ) ;
#60 = ORIENTED_EDGE ( 'NONE', *, *, #276, .T. ) ;
#61 = PERSON_AND_ORGANIZATION ( #123, #6 ) ;
#62 = DIRECTION ( 'NONE',  ( 3.491481338843133355E-15, -1.225678153645275576E-16, 1.000000000000000000 ) ) ;
#63 = AXIS2_PLACEMENT_3D ( 'NONE', #175, #203, #25 ) ;
#64 = PLANE ( 'NONE',  #235 ) ;
#65 = EDGE_LOOP ( 'NONE', ( #132 ) ) ;
#66 = EDGE_CURVE ( 'NONE', #39, #39, #134, .T. ) ;
#67 = EDGE_LOOP ( 'NONE', ( #33 ) ) ;
#68 = ORIENTED_EDGE ( 'NONE', *, *, #99, .F. ) ;
#69 = CARTESIAN_POINT ( 'NONE',  ( 1.920314736363723472E-13, -6.735557395310442615E-15, 55.00000000000000000 ) ) ;
#70 = EDGE_CURVE ( 'NONE', #87, #87, #183, .T. ) ;
#71 = CARTESIAN_POINT ( 'NONE',  ( 1.899365848330664545E-13, -3.000000000000005773, 54.40000000000000568 ) ) ;
#72 = AXIS2_PLACEMENT_3D ( 'NONE', #173, #149, #249 ) ;
#73 = CC_DESIGN_APPROVAL ( #92, ( #47 ) ) ;
#74 = DIRECTION ( 'NONE',  ( 0.0000000000000000000, -1.000000000000000000, 0.0000000000000000000 ) ) ;
#75 = CC_DESIGN_PERSON_AND_ORGANIZATION_ASSIGNMENT ( #61, #191, ( #131 ) ) ;
#76 = ORIENTED_EDGE ( 'NONE', *, *, #276, .F. ) ;
#77 = CARTESIAN_POINT ( 'NONE',  ( 0.0000000000000000000, 0.0000000000000000000, 0.0000000000000000000 ) ) ;
#78 = EDGE_LOOP ( 'NONE', ( #157 ) ) ;
#79 = AXIS2_PLACEMENT_3D ( 'NONE', #110, #2, #253 ) ;
#80 = APPROVAL_STATUS ( 'not_yet_approved' ) ;
#81 = DIRECTION ( 'NONE',  ( 0.0000000000000000000, -1.000000000000000000, 0.0000000000000000000 ) ) ;
#82 = FACE_OUTER_BOUND ( 'NONE', #27, .T. ) ;
#83 = DIRECTION ( 'NONE',  ( -3.491481338843133355E-15, 1.224646799147353207E-16, -1.000000000000000000 ) ) ;
#84 = APPROVAL_ROLE ( '' ) ;
#85 = CIRCLE ( 'NONE', #210, 2.949999999999999289 ) ;
#86 = MANIFOLD_SOLID_BREP ( 'Corps-Déplacer/Copier4[2]', #126 ) ;
#87 = VERTEX_POINT ( 'NONE', #32 ) ;
#88 = LOCAL_TIME ( 14, 56, 11.00000000000000000, #8 ) ;
#89 = EDGE_LOOP ( 'NONE', ( #68 ) ) ;
#90 = ADVANCED_FACE ( 'NONE', ( #141, #195 ), #307, .T. ) ;
#91 = FACE_OUTER_BOUND ( 'NONE', #285, .T. ) ;
#92 = APPROVAL ( #147, 'UNSPECIFIED' ) ;
#93 = VERTEX_POINT ( 'NONE', #170 ) ;
#94 = EDGE_LOOP ( 'NONE', ( #56 ) ) ;
#95 = AXIS2_PLACEMENT_3D ( 'NONE', #271, #274, #74 ) ;
#96 = ORIENTED_EDGE ( 'NONE', *, *, #70, .F. ) ;
#97 = ADVANCED_FACE ( 'NONE', ( #120, #266 ), #256, .F. ) ;
#98 = DIRECTION ( 'NONE',  ( 3.491481338843133355E-15, -1.225678153645275576E-16, 1.000000000000000000 ) ) ;
#99 = EDGE_CURVE ( 'NONE', #4, #4, #301, .T. ) ;
#100 = CALENDAR_DATE ( 2021, 13, 12 ) ;
#101 = ADVANCED_FACE ( 'NONE', ( #19 ), #171, .F. ) ;
#102 = FACE_OUTER_BOUND ( 'NONE', #179, .T. ) ;
#103 = EDGE_LOOP ( 'NONE', ( #178 ) ) ;
#104 = AXIS2_PLACEMENT_3D ( 'NONE', #180, #31, #263 ) ;
#105 = APPROVAL_PERSON_ORGANIZATION ( #311, #52, #84 ) ;
#106 = EDGE_LOOP ( 'NONE', ( #138 ) ) ;
#107 = EDGE_CURVE ( 'NONE', #215, #215, #209, .T. ) ;
#108 = DATE_TIME_ROLE ( 'creation_date' ) ;
#109 = CONICAL_SURFACE ( 'NONE', #79, 2.999999999999998668, 0.7853981633974508325 ) ;
#110 = CARTESIAN_POINT ( 'NONE',  ( 1.899365848330664545E-13, -6.662016706091726628E-15, 54.40000000000000568 ) ) ;
#111 = APPROVAL ( #28, 'UNSPECIFIED' ) ;
#112 = FACE_OUTER_BOUND ( 'NONE', #65, .T. ) ;
#113 = ORIENTED_EDGE ( 'NONE', *, *, #222, .T. ) ;
#114 = FACE_OUTER_BOUND ( 'NONE', #252, .T. ) ;
#115 = CARTESIAN_POINT ( 'NONE',  ( 3.989858239493477652E-14, -1.394960005570238647E-15, 11.42740817516577856 ) ) ;
#116 = EDGE_LOOP ( 'NONE', ( #41 ) ) ;
#117 = PERSON_AND_ORGANIZATION ( #123, #6 ) ;
#118 = DIRECTION ( 'NONE',  ( 0.0000000000000000000, -1.000000000000000000, 0.0000000000000000000 ) ) ;
#119 = AXIS2_PLACEMENT_3D ( 'NONE', #69, #267, #118 ) ;
#120 = FACE_OUTER_BOUND ( 'NONE', #116, .T. ) ;
#121 = APPLICATION_CONTEXT ( 'configuration controlled 3d designs of mechanical parts and assemblies' ) ;
#122 = CARTESIAN_POINT ( 'NONE',  ( 4.957903501157248102E-14, -1.734790528437717811E-15, 14.19999999999999751 ) ) ;
#123 = PERSON ( 'UNSPECIFIED', 'UNSPECIFIED', 'UNSPECIFIED', ('UNSPECIFIED'), ('UNSPECIFIED'), ('UNSPECIFIED') ) ;
#124 = DIRECTION ( 'NONE',  ( 0.0000000000000000000, -1.000000000000000000, 0.0000000000000000000 ) ) ;
#125 = APPROVAL_PERSON_ORGANIZATION ( #44, #92, #163 ) ;
#126 = CLOSED_SHELL ( 'NONE', ( #3, #142, #150 ) ) ;
#127 = DIRECTION ( 'NONE',  ( 3.491481338843133355E-15, -1.225678153645275576E-16, 1.000000000000000000 ) ) ;
#128 = PLANE ( 'NONE',  #14 ) ;
#129 = AXIS2_PLACEMENT_3D ( 'NONE', #29, #130, #232 ) ;
#130 = DIRECTION ( 'NONE',  ( 3.491481338843133355E-15, -1.225678153645275576E-16, 1.000000000000000000 ) ) ;
#131 = PRODUCT_DEFINITION ( 'UNKNOWN', '', #207, #197 ) ;
#132 = ORIENTED_EDGE ( 'NONE', *, *, #239, .F. ) ;
#133 = CALENDAR_DATE ( 2021, 13, 12 ) ;
#134 = CIRCLE ( 'NONE', #316, 2.999999999999993783 ) ;
#135 = AXIS2_PLACEMENT_3D ( 'NONE', #273, #226, #53 ) ;
#136 = DIRECTION ( 'NONE',  ( -4.275831445896958607E-31, -1.000000000000000000, -1.224646799147353207E-16 ) ) ;
#137 = FACE_OUTER_BOUND ( 'NONE', #106, .T. ) ;
#138 = ORIENTED_EDGE ( 'NONE', *, *, #218, .T. ) ;
#139 = CALENDAR_DATE ( 2021, 13, 12 ) ;
#140 = VERTEX_POINT ( 'NONE', #245 ) ;
#141 = FACE_OUTER_BOUND ( 'NONE', #159, .T. ) ;
#142 = ADVANCED_FACE ( 'NONE', ( #279, #188 ), #305, .T. ) ;
#143 = VERTEX_POINT ( 'NONE', #265 ) ;
#144 = LOCAL_TIME ( 14, 56, 11.00000000000000000, #172 ) ;
#145 = DIRECTION ( 'NONE',  ( 3.491481338843133355E-15, -1.225678153645275576E-16, 1.000000000000000000 ) ) ;
#146 = CC_DESIGN_PERSON_AND_ORGANIZATION_ASSIGNMENT ( #196, #231, ( #207 ) ) ;
#147 = APPROVAL_STATUS ( 'not_yet_approved' ) ;
#148 = PERSON_AND_ORGANIZATION_ROLE ( 'classification_officer' ) ;
#149 = DIRECTION ( 'NONE',  ( 0.0000000000000000000, 0.0000000000000000000, 1.000000000000000000 ) ) ;
#150 = ADVANCED_FACE ( 'NONE', ( #112 ), #64, .T. ) ;
#151 = PRODUCT_RELATED_PRODUCT_CATEGORY ( 'detail', '', ( #49 ) ) ;
#152 = ADVANCED_FACE ( 'NONE', ( #213, #5 ), #259, .T. ) ;
#153 = LOCAL_TIME ( 14, 56, 11.00000000000000000, #261 ) ;
#154 = FACE_BOUND ( 'NONE', #103, .T. ) ;
#155 = EDGE_CURVE ( 'NONE', #214, #214, #251, .T. ) ;
#156 = PERSON_AND_ORGANIZATION_ROLE ( 'design_owner' ) ;
#157 = ORIENTED_EDGE ( 'NONE', *, *, #99, .T. ) ;
#158 = AXIS2_PLACEMENT_3D ( 'NONE', #115, #238, #194 ) ;
#159 = EDGE_LOOP ( 'NONE', ( #323 ) ) ;
#160 = PLANE ( 'NONE',  #104 ) ;
#161 = ADVANCED_FACE ( 'NONE', ( #286 ), #160, .F. ) ;
#162 = DIRECTION ( 'NONE',  ( 3.491481338843133355E-15, -1.224646799147353207E-16, 1.000000000000000000 ) ) ;
#163 = APPROVAL_ROLE ( '' ) ;
#164 = DIRECTION ( 'NONE',  ( 3.491481338843133355E-15, -1.225678153645275576E-16, 1.000000000000000000 ) ) ;
#165 = AXIS2_PLACEMENT_3D ( 'NONE', #224, #127, #319 ) ;
#166 = AXIS2_PLACEMENT_3D ( 'NONE', #58, #62, #81 ) ;
#167 = EDGE_LOOP ( 'NONE', ( #54 ) ) ;
#168 = EDGE_LOOP ( 'NONE', ( #190 ) ) ;
#169 = COORDINATED_UNIVERSAL_TIME_OFFSET ( 1, 0, .AHEAD. ) ;
#170 = CARTESIAN_POINT ( 'NONE',  ( 9.426999614876461637E-15, 0.8999999999999995781, 2.700000000000000178 ) ) ;
#171 = PLANE ( 'NONE',  #22 ) ;
#172 = COORDINATED_UNIVERSAL_TIME_OFFSET ( 1, 0, .AHEAD. ) ;
#173 = CARTESIAN_POINT ( 'NONE',  ( 0.0000000000000000000, 0.0000000000000000000, 0.0000000000000000000 ) ) ;
#174 = DIRECTION ( 'NONE',  ( 4.279432400880186472E-31, 1.000000000000000000, 1.225678153645275576E-16 ) ) ;
#175 = CARTESIAN_POINT ( 'NONE',  ( 4.957903501157248733E-14, 2.999999999999992450, 14.19999999999999929 ) ) ;
#176 = EDGE_CURVE ( 'NONE', #59, #59, #272, .T. ) ;
#177 = CC_DESIGN_SECURITY_CLASSIFICATION ( #47, ( #207 ) ) ;
#178 = ORIENTED_EDGE ( 'NONE', *, *, #107, .F. ) ;
#179 = EDGE_LOOP ( 'NONE', ( #288 ) ) ;
#180 = CARTESIAN_POINT ( 'NONE',  ( 9.426999614876461637E-15, 0.8999999999999995781, 2.700000000000000178 ) ) ;
#181 = ADVANCED_FACE ( 'NONE', ( #154, #137 ), #109, .T. ) ;
#182 = CARTESIAN_POINT ( 'NONE',  ( 1.361677722148822166E-14, -0.9226280066714819261, 3.900000000000000799 ) ) ;
#183 = CIRCLE ( 'NONE', #40, 0.9000000000000002442 ) ;
#184 = ORIENTED_EDGE ( 'NONE', *, *, #107, .T. ) ;
#185 = COORDINATED_UNIVERSAL_TIME_OFFSET ( 1, 0, .AHEAD. ) ;
#186 = VERTEX_POINT ( 'NONE', #71 ) ;
#187 = EDGE_LOOP ( 'NONE', ( #76 ) ) ;
#188 = FACE_OUTER_BOUND ( 'NONE', #94, .T. ) ;
#189 = APPROVAL_ROLE ( '' ) ;
#190 = ORIENTED_EDGE ( 'NONE', *, *, #234, .T. ) ;
#191 = PERSON_AND_ORGANIZATION_ROLE ( 'creator' ) ;
#192 = AXIS2_PLACEMENT_3D ( 'NONE', #43, #227, #124 ) ;
#193 = CIRCLE ( 'NONE', #135, 0.8999999999999995781 ) ;
#194 = DIRECTION ( 'NONE',  ( 0.0000000000000000000, -1.000000000000000000, 0.0000000000000000000 ) ) ;
#195 = FACE_BOUND ( 'NONE', #168, .T. ) ;
#196 = PERSON_AND_ORGANIZATION ( #123, #6 ) ;
#197 = DESIGN_CONTEXT ( 'detailed design', #236, 'design' ) ;
#198 = AXIS2_PLACEMENT_3D ( 'NONE', #77, #83, #211 ) ;
#199 = ORIENTED_EDGE ( 'NONE', *, *, #222, .F. ) ;
#200 =( NAMED_UNIT ( * ) PLANE_ANGLE_UNIT ( ) SI_UNIT ( $, .RADIAN. ) );
#201 = DATE_TIME_ROLE ( 'classification_date' ) ;
#202 = DIRECTION ( 'NONE',  ( -3.491481338843133355E-15, 1.225678153645275576E-16, -1.000000000000000000 ) ) ;
#203 = DIRECTION ( 'NONE',  ( 3.491481338843133355E-15, -1.225678153645275576E-16, 1.000000000000000000 ) ) ;
#204 = DIRECTION ( 'NONE',  ( 0.0000000000000000000, -1.000000000000000000, 0.0000000000000000000 ) ) ;
#205 = CIRCLE ( 'NONE', #129, 2.999999999999999112 ) ;
#206 = ORIENTED_EDGE ( 'NONE', *, *, #234, .F. ) ;
#207 = PRODUCT_DEFINITION_FORMATION_WITH_SPECIFIED_SOURCE ( 'ANY', '', #49, .NOT_KNOWN. ) ;
#208 = CC_DESIGN_DATE_AND_TIME_ASSIGNMENT ( #268, #201, ( #47 ) ) ;
#209 = CIRCLE ( 'NONE', #192, 2.399999999999999467 ) ;
#210 = AXIS2_PLACEMENT_3D ( 'NONE', #51, #250, #204 ) ;
#211 = DIRECTION ( 'NONE',  ( 4.275831445896958607E-31, 1.000000000000000000, 1.224646799147353207E-16 ) ) ;
#212 = DATE_AND_TIME ( #254, #296 ) ;
#213 = FACE_OUTER_BOUND ( 'NONE', #187, .T. ) ;
#214 = VERTEX_POINT ( 'NONE', #287 ) ;
#215 = VERTEX_POINT ( 'NONE', #309 ) ;
#216 = DIRECTION ( 'NONE',  ( 3.491481338843133355E-15, -1.225678153645275576E-16, 1.000000000000000000 ) ) ;
#217 = PERSON_AND_ORGANIZATION_ROLE ( 'creator' ) ;
#218 = EDGE_CURVE ( 'NONE', #186, #186, #205, .T. ) ;
#219 = VERTEX_POINT ( 'NONE', #15 ) ;
#220 = AXIS2_PLACEMENT_3D ( 'NONE', #264, #164, #16 ) ;
#221 =( LENGTH_UNIT ( ) NAMED_UNIT ( * ) SI_UNIT ( .MILLI., .METRE. ) );
#222 = EDGE_CURVE ( 'NONE', #143, #143, #193, .T. ) ;
#223 = APPLICATION_PROTOCOL_DEFINITION ( 'international standard', 'config_control_design', 1994, #121 ) ;
#224 = CARTESIAN_POINT ( 'NONE',  ( 9.426999614876463215E-15, -3.252606517456513302E-16, 2.700000000000001066 ) ) ;
#225 = FACE_BOUND ( 'NONE', #67, .T. ) ;
#226 = DIRECTION ( 'NONE',  ( -3.491481338843133355E-15, 1.224646799147353207E-16, -1.000000000000000000 ) ) ;
#227 = DIRECTION ( 'NONE',  ( 3.491481338843133355E-15, -1.225678153645275576E-16, 1.000000000000000000 ) ) ;
#228 = AXIS2_PLACEMENT_3D ( 'NONE', #24, #270, #48 ) ;
#229 = CIRCLE ( 'NONE', #23, 0.8999999999999999112 ) ;
#230 = DIRECTION ( 'NONE',  ( 3.491481338843133355E-15, -1.225678153645275576E-16, 1.000000000000000000 ) ) ;
#231 = PERSON_AND_ORGANIZATION_ROLE ( 'design_supplier' ) ;
#232 = DIRECTION ( 'NONE',  ( 0.0000000000000000000, -1.000000000000000000, 0.0000000000000000000 ) ) ;
#233 = CARTESIAN_POINT ( 'NONE',  ( 4.957903501157248102E-14, -2.999999999999995559, 14.19999999999999751 ) ) ;
#234 = EDGE_CURVE ( 'NONE', #219, #219, #45, .T. ) ;
#235 = AXIS2_PLACEMENT_3D ( 'NONE', #284, #9, #136 ) ;
#236 = APPLICATION_CONTEXT ( 'configuration controlled 3d designs of mechanical parts and assemblies' ) ;
#237 = CC_DESIGN_APPROVAL ( #52, ( #207 ) ) ;
#238 = DIRECTION ( 'NONE',  ( 3.491481338843133355E-15, -1.225678153645275576E-16, 1.000000000000000000 ) ) ;
#239 = EDGE_CURVE ( 'NONE', #93, #93, #229, .T. ) ;
#240 = DIRECTION ( 'NONE',  ( -4.275831445896958607E-31, -1.000000000000000000, -1.224646799147353207E-16 ) ) ;
#241 = DATE_AND_TIME ( #139, #153 ) ;
#242 = FACE_OUTER_BOUND ( 'NONE', #78, .T. ) ;
#243 = CC_DESIGN_PERSON_AND_ORGANIZATION_ASSIGNMENT ( #293, #148, ( #47 ) ) ;
#244 = EDGE_LOOP ( 'NONE', ( #292 ) ) ;
#245 = CARTESIAN_POINT ( 'NONE',  ( 4.957903501157248102E-14, -2.950000000000001066, 14.19999999999999751 ) ) ;
#246 = CALENDAR_DATE ( 2021, 13, 12 ) ;
#247 = LOCAL_TIME ( 14, 56, 11.00000000000000000, #169 ) ;
#248 = FACE_OUTER_BOUND ( 'NONE', #37, .T. ) ;
#249 = DIRECTION ( 'NONE',  ( 1.000000000000000000, 0.0000000000000000000, 0.0000000000000000000 ) ) ;
#250 = DIRECTION ( 'NONE',  ( 3.491481338843133355E-15, -1.225678153645275576E-16, 1.000000000000000000 ) ) ;
#251 = CIRCLE ( 'NONE', #158, 2.949999999999999289 ) ;
#252 = EDGE_LOOP ( 'NONE', ( #30 ) ) ;
#253 = DIRECTION ( 'NONE',  ( 0.0000000000000000000, 1.000000000000000000, 0.0000000000000000000 ) ) ;
#254 = CALENDAR_DATE ( 2021, 13, 12 ) ;
#255 = CC_DESIGN_PERSON_AND_ORGANIZATION_ASSIGNMENT ( #117, #217, ( #207 ) ) ;
#256 = TOROIDAL_SURFACE ( 'NONE', #228, 2.900000000000000355, 2.000000000000000000 ) ;
#257 = EDGE_LOOP ( 'NONE', ( #184 ) ) ;
#258 = AXIS2_PLACEMENT_3D ( 'NONE', #55, #230, #310 ) ;
#259 = CYLINDRICAL_SURFACE ( 'NONE', #166, 2.949999999999999289 ) ;
#260 = ADVANCED_FACE ( 'NONE', ( #102, #21 ), #299, .F. ) ;
#261 = COORDINATED_UNIVERSAL_TIME_OFFSET ( 1, 0, .AHEAD. ) ;
#262 = FACE_OUTER_BOUND ( 'NONE', #244, .T. ) ;
#263 = DIRECTION ( 'NONE',  ( -4.279432400880186472E-31, -1.000000000000000000, -1.225678153645275576E-16 ) ) ;
#264 = CARTESIAN_POINT ( 'NONE',  ( 1.361677722148822166E-14, -4.723420301830843895E-16, 3.900000000000000799 ) ) ;
#265 = CARTESIAN_POINT ( 'NONE',  ( 2.137183397710479182E-32, 0.8999999999999995781, 6.121136532892404794E-18 ) ) ;
#266 = FACE_OUTER_BOUND ( 'NONE', #167, .T. ) ;
#267 = DIRECTION ( 'NONE',  ( 3.491481338843133355E-15, -1.225678153645275576E-16, 1.000000000000000000 ) ) ;
#268 = DATE_AND_TIME ( #100, #247 ) ;
#269 =( NAMED_UNIT ( * ) SI_UNIT ( $, .STERADIAN. ) SOLID_ANGLE_UNIT ( ) );
#270 = DIRECTION ( 'NONE',  ( 3.491481338843133355E-15, -1.225678153645275576E-16, 1.000000000000000000 ) ) ;
#271 = CARTESIAN_POINT ( 'NONE',  ( 1.361677722148822166E-14, -4.723420301830843895E-16, 3.900000000000000799 ) ) ;
#272 = CIRCLE ( 'NONE', #258, 0.9226280066714814820 ) ;
#273 = CARTESIAN_POINT ( 'NONE',  ( -3.634529961536213092E-31, 1.274821501774165064E-32, -1.040970753903693247E-16 ) ) ;
#274 = DIRECTION ( 'NONE',  ( 3.491481338843133355E-15, -1.225678153645275576E-16, 1.000000000000000000 ) ) ;
#275 = CC_DESIGN_APPROVAL ( #111, ( #131 ) ) ;
#276 = EDGE_CURVE ( 'NONE', #140, #140, #85, .T. ) ;
#277 = ADVANCED_FACE ( 'NONE', ( #248, #225 ), #128, .F. ) ;
#278 = ORIENTED_EDGE ( 'NONE', *, *, #155, .T. ) ;
#279 = FACE_OUTER_BOUND ( 'NONE', #281, .T. ) ;
#280 = CLOSED_SHELL ( 'NONE', ( #320, #97, #277, #90, #152, #260, #297, #181, #101, #161 ) ) ;
#281 = EDGE_LOOP ( 'NONE', ( #199 ) ) ;
#282 = CC_DESIGN_DATE_AND_TIME_ASSIGNMENT ( #241, #108, ( #131 ) ) ;
#283 = CARTESIAN_POINT ( 'NONE',  ( 1.920314736363723472E-13, -6.735557395310442615E-15, 55.00000000000000000 ) ) ;
#284 = CARTESIAN_POINT ( 'NONE',  ( 9.426999614876461637E-15, 6.748919021978355130E-33, 2.700000000000000178 ) ) ;
#285 = EDGE_LOOP ( 'NONE', ( #113 ) ) ;
#286 = FACE_OUTER_BOUND ( 'NONE', #89, .T. ) ;
#287 = CARTESIAN_POINT ( 'NONE',  ( 3.989858239493477652E-14, -2.950000000000000622, 11.42740817516577856 ) ) ;
#288 = ORIENTED_EDGE ( 'NONE', *, *, #66, .F. ) ;
#289 = UNCERTAINTY_MEASURE_WITH_UNIT (LENGTH_MEASURE( 1.000000000000000082E-05 ), #221, 'distance_accuracy_value', 'NONE');
#290 = DIRECTION ( 'NONE',  ( 0.0000000000000000000, -1.000000000000000000, 0.0000000000000000000 ) ) ;
#291 = DIRECTION ( 'NONE',  ( 0.0000000000000000000, -1.000000000000000000, 0.0000000000000000000 ) ) ;
#292 = ORIENTED_EDGE ( 'NONE', *, *, #66, .T. ) ;
#293 = PERSON_AND_ORGANIZATION ( #123, #6 ) ;
#294 = SECURITY_CLASSIFICATION_LEVEL ( 'unclassified' ) ;
#295 = PRODUCT_DEFINITION_SHAPE ( 'NONE', 'NONE',  #131 ) ;
#296 = LOCAL_TIME ( 14, 56, 11.00000000000000000, #185 ) ;
#297 = ADVANCED_FACE ( 'NONE', ( #114, #262 ), #42, .T. ) ;
#298 = DIRECTION ( 'NONE',  ( -3.491481338843133355E-15, 1.224646799147353207E-16, -1.000000000000000000 ) ) ;
#299 = PLANE ( 'NONE',  #63 ) ;
#300 = CARTESIAN_POINT ( 'NONE',  ( 9.426999614876461637E-15, -3.306546357697853733E-16, 2.700000000000000178 ) ) ;
#301 = CIRCLE ( 'NONE', #165, 0.8999999999999999112 ) ;
#302 =( GEOMETRIC_REPRESENTATION_CONTEXT ( 3 ) GLOBAL_UNCERTAINTY_ASSIGNED_CONTEXT ( ( #289 ) ) GLOBAL_UNIT_ASSIGNED_CONTEXT ( ( #221, #200, #269 ) ) REPRESENTATION_CONTEXT ( 'NONE', 'WORKASPACE' ) );
#303 = EDGE_LOOP ( 'NONE', ( #278 ) ) ;
#304 = MANIFOLD_SOLID_BREP ( 'Corps-Déplacer/Copier4[1]', #280 ) ;
#305 = CYLINDRICAL_SURFACE ( 'NONE', #198, 0.8999999999999998002 ) ;
#306 = APPLICATION_PROTOCOL_DEFINITION ( 'international standard', 'config_control_design', 1994, #236 ) ;
#307 = CONICAL_SURFACE ( 'NONE', #220, 1.350000000000000089, 0.2094395102393127039 ) ;
#308 = CC_DESIGN_PERSON_AND_ORGANIZATION_ASSIGNMENT ( #36, #156, ( #49 ) ) ;
#309 = CARTESIAN_POINT ( 'NONE',  ( 1.920314736363723472E-13, -2.400000000000006128, 55.00000000000000000 ) ) ;
#310 = DIRECTION ( 'NONE',  ( 0.0000000000000000000, -1.000000000000000000, 0.0000000000000000000 ) ) ;
#311 = PERSON_AND_ORGANIZATION ( #123, #6 ) ;
#312 = CARTESIAN_POINT ( 'NONE',  ( 1.256933281983527692E-14, -4.355716855737257549E-16, 3.599999999999999201 ) ) ;
#313 = CYLINDRICAL_SURFACE ( 'NONE', #26, 0.9000000000000000222 ) ;
#314 = EDGE_LOOP ( 'NONE', ( #60 ) ) ;
#315 = DIRECTION ( 'NONE',  ( 0.0000000000000000000, -1.000000000000000000, 0.0000000000000000000 ) ) ;
#316 = AXIS2_PLACEMENT_3D ( 'NONE', #122, #216, #315 ) ;
#317 = DATE_AND_TIME ( #246, #144 ) ;
#318 = CARTESIAN_POINT ( 'NONE',  ( 1.361677722148822009E-14, 0.9226280066714810379, 3.899999999999999911 ) ) ;
#319 = DIRECTION ( 'NONE',  ( 0.0000000000000000000, -1.000000000000000000, 0.0000000000000000000 ) ) ;
#320 = ADVANCED_FACE ( 'NONE', ( #82, #242 ), #313, .T. ) ;
#321 = MECHANICAL_CONTEXT ( 'NONE', #121, 'mechanical' ) ;
#322 = DIRECTION ( 'NONE',  ( 0.0000000000000000000, 1.000000000000000000, 0.0000000000000000000 ) ) ;
#323 = ORIENTED_EDGE ( 'NONE', *, *, #155, .F. ) ;
ENDSEC;
END-ISO-10303-21;
