ISO-10303-21;
HEADER;
FILE_DESCRIPTION (( 'STEP AP203' ),
    '1' );
FILE_NAME ('384641.step',
    '2021-12-13T13:56:10',
    ( '' ),
    ( '' ),
    'SwSTEP 2.0',
    'SolidWorks 2019',
    '' );
FILE_SCHEMA (( 'CONFIG_CONTROL_DESIGN' ));
ENDSEC;

DATA;
#1 = DIRECTION ( 'NONE',  ( 0.0000000000000000000, 1.000000000000000000, 0.0000000000000000000 ) ) ;
#2 = FACE_OUTER_BOUND ( 'NONE', #11, .T. ) ;
#3 = DATE_AND_TIME ( #94, #228 ) ;
#4 = DIRECTION ( 'NONE',  ( 0.0000000000000000000, 1.000000000000000000, 0.0000000000000000000 ) ) ;
#5 = PERSON ( 'UNSPECIFIED', 'UNSPECIFIED', 'UNSPECIFIED', ('UNSPECIFIED'), ('UNSPECIFIED'), ('UNSPECIFIED') ) ;
#6 = PERSON_AND_ORGANIZATION ( #5, #39 ) ;
#7 = ADVANCED_FACE ( 'NONE', ( #136 ), #184, .T. ) ;
#8 = ADVANCED_BREP_SHAPE_REPRESENTATION ( '384641', ( #59, #172, #269 ), #192 ) ;
#9 = ADVANCED_FACE ( 'NONE', ( #289 ), #83, .F. ) ;
#10 = DIRECTION ( 'NONE',  ( -3.491481338843133355E-15, 1.224646799147353207E-16, -1.000000000000000000 ) ) ;
#11 = EDGE_LOOP ( 'NONE', ( #173 ) ) ;
#12 = VERTEX_POINT ( 'NONE', #127 ) ;
#13 = ORIENTED_EDGE ( 'NONE', *, *, #67, .T. ) ;
#14 = APPROVAL_PERSON_ORGANIZATION ( #6, #212, #35 ) ;
#15 = ORIENTED_EDGE ( 'NONE', *, *, #202, .F. ) ;
#16 = CARTESIAN_POINT ( 'NONE',  ( 1.361677722148822009E-14, 1.349999999999999201, 3.899999999999999911 ) ) ;
#17 = ORIENTED_EDGE ( 'NONE', *, *, #209, .T. ) ;
#18 = EDGE_CURVE ( 'NONE', #98, #98, #204, .T. ) ;
#19 = CARTESIAN_POINT ( 'NONE',  ( 9.077851480992146724E-15, -3.184081677783118191E-16, 2.600000000000000089 ) ) ;
#20 = DIRECTION ( 'NONE',  ( -3.491481338843133355E-15, 1.224646799147353207E-16, -1.000000000000000000 ) ) ;
#21 = AXIS2_PLACEMENT_3D ( 'NONE', #330, #10, #71 ) ;
#22 = CARTESIAN_POINT ( 'NONE',  ( 1.332287612930166874E-14, 0.8937047985323846033, 3.815823381635505829 ) ) ;
#23 = DIRECTION ( 'NONE',  ( -3.491481338843133355E-15, 1.224646799147353207E-16, -1.000000000000000000 ) ) ;
#24 = CC_DESIGN_PERSON_AND_ORGANIZATION_ASSIGNMENT ( #91, #301, ( #60 ) ) ;
#25 = EDGE_LOOP ( 'NONE', ( #241 ) ) ;
#26 = CARTESIAN_POINT ( 'NONE',  ( 4.957903501157248733E-14, 4.461785353419018994E-32, 14.19999999999999929 ) ) ;
#27 = CC_DESIGN_PERSON_AND_ORGANIZATION_ASSIGNMENT ( #303, #198, ( #267 ) ) ;
#28 = DIRECTION ( 'NONE',  ( -3.491481338843133355E-15, 1.224646799147353207E-16, -1.000000000000000000 ) ) ;
#29 = SECURITY_CLASSIFICATION_LEVEL ( 'unclassified' ) ;
#30 = PERSON_AND_ORGANIZATION ( #5, #39 ) ;
#31 = DIRECTION ( 'NONE',  ( 4.275831445896959482E-31, 1.000000000000000000, 1.224646799147353207E-16 ) ) ;
#32 = DIRECTION ( 'NONE',  ( 0.0000000000000000000, 1.000000000000000000, 0.0000000000000000000 ) ) ;
#33 = DATE_AND_TIME ( #140, #117 ) ;
#34 = FACE_OUTER_BOUND ( 'NONE', #41, .T. ) ;
#35 = APPROVAL_ROLE ( '' ) ;
#36 = CARTESIAN_POINT ( 'NONE',  ( 9.077851480992146724E-15, 0.8499999999999987566, 2.600000000000000089 ) ) ;
#37 = EDGE_CURVE ( 'NONE', #175, #175, #58, .T. ) ;
#38 = DESIGN_CONTEXT ( 'detailed design', #75, 'design' ) ;
#39 = ORGANIZATION ( 'UNSPECIFIED', 'UNSPECIFIED', '' ) ;
#40 = DIRECTION ( 'NONE',  ( 4.275831445896958607E-31, 1.000000000000000000, 1.224646799147353207E-16 ) ) ;
#41 = EDGE_LOOP ( 'NONE', ( #181 ) ) ;
#42 = CARTESIAN_POINT ( 'NONE',  ( 4.957903501157248733E-14, 2.949999999999997957, 14.19999999999999929 ) ) ;
#43 = AXIS2_PLACEMENT_3D ( 'NONE', #144, #56, #195 ) ;
#44 = LOCAL_TIME ( 14, 56, 10.00000000000000000, #120 ) ;
#45 = DIRECTION ( 'NONE',  ( -3.491481338843133355E-15, 1.224646799147353207E-16, -1.000000000000000000 ) ) ;
#46 = CARTESIAN_POINT ( 'NONE',  ( 1.899365848330664545E-13, 2.999999999999992450, 54.40000000000000568 ) ) ;
#47 = ORIENTED_EDGE ( 'NONE', *, *, #180, .T. ) ;
#48 = EDGE_LOOP ( 'NONE', ( #47 ) ) ;
#49 = ADVANCED_FACE ( 'NONE', ( #104, #271 ), #235, .T. ) ;
#50 = CARTESIAN_POINT ( 'NONE',  ( 3.989858239493477652E-14, 2.949999999999997957, 11.42740817516577856 ) ) ;
#51 = AXIS2_PLACEMENT_3D ( 'NONE', #311, #341, #157 ) ;
#52 = DIRECTION ( 'NONE',  ( 3.491481338843133355E-15, -1.224646799147353207E-16, 1.000000000000000000 ) ) ;
#53 = DIRECTION ( 'NONE',  ( 0.0000000000000000000, 1.000000000000000000, 0.0000000000000000000 ) ) ;
#54 = DIRECTION ( 'NONE',  ( 3.491481338843133355E-15, -1.224646799147353207E-16, 1.000000000000000000 ) ) ;
#55 = APPLICATION_CONTEXT ( 'configuration controlled 3d designs of mechanical parts and assemblies' ) ;
#56 = DIRECTION ( 'NONE',  ( 3.491481338843133355E-15, -1.224646799147353207E-16, 1.000000000000000000 ) ) ;
#57 = APPROVAL_ROLE ( '' ) ;
#58 = CIRCLE ( 'NONE', #257, 2.399999999999999467 ) ;
#59 = MANIFOLD_SOLID_BREP ( 'Corps-Déplacer/Copier1[1]', #282 ) ;
#60 = SECURITY_CLASSIFICATION ( '', '', #29 ) ;
#61 = DATE_AND_TIME ( #245, #317 ) ;
#62 = AXIS2_PLACEMENT_3D ( 'NONE', #286, #155, #185 ) ;
#63 = CARTESIAN_POINT ( 'NONE',  ( -1.068947240999505419E-30, 3.749362205043862503E-32, -3.061586579619784665E-16 ) ) ;
#64 = ADVANCED_FACE ( 'NONE', ( #153, #109 ), #211, .T. ) ;
#65 = CARTESIAN_POINT ( 'NONE',  ( 0.0000000000000000000, 0.0000000000000000000, 0.0000000000000000000 ) ) ;
#66 = APPROVAL_STATUS ( 'not_yet_approved' ) ;
#67 = EDGE_CURVE ( 'NONE', #12, #12, #334, .T. ) ;
#68 = DIRECTION ( 'NONE',  ( 4.275831445896958607E-31, 1.000000000000000000, 1.224646799147353207E-16 ) ) ;
#69 = PERSON_AND_ORGANIZATION ( #5, #39 ) ;
#70 = APPROVAL_STATUS ( 'not_yet_approved' ) ;
#71 = DIRECTION ( 'NONE',  ( 0.0000000000000000000, 1.000000000000000000, 0.0000000000000000000 ) ) ;
#72 = CIRCLE ( 'NONE', #150, 2.949999999999999289 ) ;
#73 = APPROVAL_PERSON_ORGANIZATION ( #276, #259, #249 ) ;
#74 = DIRECTION ( 'NONE',  ( -4.275831445896958607E-31, -1.000000000000000000, -1.224646799147353207E-16 ) ) ;
#75 = APPLICATION_CONTEXT ( 'configuration controlled 3d designs of mechanical parts and assemblies' ) ;
#76 = EDGE_LOOP ( 'NONE', ( #233 ) ) ;
#77 = ORIENTED_EDGE ( 'NONE', *, *, #128, .F. ) ;
#78 = CIRCLE ( 'NONE', #220, 1.349999999999999645 ) ;
#79 = EDGE_LOOP ( 'NONE', ( #17 ) ) ;
#80 = EDGE_LOOP ( 'NONE', ( #230 ) ) ;
#81 = EDGE_LOOP ( 'NONE', ( #13 ) ) ;
#82 = TOROIDAL_SURFACE ( 'NONE', #125, 2.849999999999999645, 2.000000000000000444 ) ;
#83 = PLANE ( 'NONE',  #156 ) ;
#84 = AXIS2_PLACEMENT_3D ( 'NONE', #26, #138, #298 ) ;
#85 = CARTESIAN_POINT ( 'NONE',  ( 0.0000000000000000000, 0.0000000000000000000, 0.0000000000000000000 ) ) ;
#86 = DIRECTION ( 'NONE',  ( 0.0000000000000000000, 1.000000000000000000, 0.0000000000000000000 ) ) ;
#87 = CALENDAR_DATE ( 2021, 13, 12 ) ;
#88 = FACE_OUTER_BOUND ( 'NONE', #79, .T. ) ;
#89 = CC_DESIGN_SECURITY_CLASSIFICATION ( #60, ( #213 ) ) ;
#90 = CARTESIAN_POINT ( 'NONE',  ( 1.361677722148822009E-14, -4.776122516674677286E-16, 3.899999999999999911 ) ) ;
#91 = PERSON_AND_ORGANIZATION ( #5, #39 ) ;
#92 = DIRECTION ( 'NONE',  ( -3.491481338843133355E-15, 1.224646799147353207E-16, -1.000000000000000000 ) ) ;
#93 = PRODUCT_DEFINITION ( 'UNKNOWN', '', #213, #38 ) ;
#94 = CALENDAR_DATE ( 2021, 13, 12 ) ;
#95 = DIRECTION ( 'NONE',  ( 0.0000000000000000000, 0.0000000000000000000, 1.000000000000000000 ) ) ;
#96 = EDGE_LOOP ( 'NONE', ( #200 ) ) ;
#97 = CIRCLE ( 'NONE', #179, 2.999999999999998668 ) ;
#98 = VERTEX_POINT ( 'NONE', #36 ) ;
#99 = ORIENTED_EDGE ( 'NONE', *, *, #67, .F. ) ;
#100 = CARTESIAN_POINT ( 'NONE',  ( 1.920314736363723472E-13, -6.735557395310442615E-15, 55.00000000000000000 ) ) ;
#101 = CARTESIAN_POINT ( 'NONE',  ( 1.187103655206665341E-14, 0.8499999999999987566, 3.400000000000000355 ) ) ;
#102 = ADVANCED_FACE ( 'NONE', ( #337 ), #203, .F. ) ;
#103 = DIRECTION ( 'NONE',  ( -4.275831445896958607E-31, -1.000000000000000000, -1.224646799147353207E-16 ) ) ;
#104 = FACE_OUTER_BOUND ( 'NONE', #270, .T. ) ;
#105 = AXIS2_PLACEMENT_3D ( 'NONE', #252, #223, #32 ) ;
#106 = CONICAL_SURFACE ( 'NONE', #166, 2.399999999999999467, 0.7853981633974508325 ) ;
#107 = EDGE_LOOP ( 'NONE', ( #77 ) ) ;
#108 = ORIENTED_EDGE ( 'NONE', *, *, #128, .T. ) ;
#109 = FACE_OUTER_BOUND ( 'NONE', #48, .T. ) ;
#110 = APPROVAL_PERSON_ORGANIZATION ( #69, #248, #57 ) ;
#111 = CARTESIAN_POINT ( 'NONE',  ( 1.361677722148821693E-14, -4.776122516674676300E-16, 3.899999999999999023 ) ) ;
#112 = EDGE_CURVE ( 'NONE', #256, #256, #312, .T. ) ;
#113 = CARTESIAN_POINT ( 'NONE',  ( 1.187103655206665183E-14, -4.336808689942017736E-16, 3.399999999999999911 ) ) ;
#114 = CARTESIAN_POINT ( 'NONE',  ( 3.989858239493477652E-14, -1.399453884426706758E-15, 11.42740817516577856 ) ) ;
#115 = FACE_OUTER_BOUND ( 'NONE', #332, .T. ) ;
#116 = AXIS2_PLACEMENT_3D ( 'NONE', #325, #294, #159 ) ;
#117 = LOCAL_TIME ( 14, 56, 10.00000000000000000, #145 ) ;
#118 = CC_DESIGN_PERSON_AND_ORGANIZATION_ASSIGNMENT ( #30, #287, ( #93 ) ) ;
#119 = DIRECTION ( 'NONE',  ( 4.330584630233575981E-31, 1.000000000000000000, 1.224646799147353207E-16 ) ) ;
#120 = COORDINATED_UNIVERSAL_TIME_OFFSET ( 1, 0, .AHEAD. ) ;
#121 = APPROVAL_STATUS ( 'not_yet_approved' ) ;
#122 = VERTEX_POINT ( 'NONE', #101 ) ;
#123 = MECHANICAL_CONTEXT ( 'NONE', #55, 'mechanical' ) ;
#124 = CC_DESIGN_PERSON_AND_ORGANIZATION_ASSIGNMENT ( #295, #275, ( #213 ) ) ;
#125 = AXIS2_PLACEMENT_3D ( 'NONE', #113, #28, #119 ) ;
#126 = ORIENTED_EDGE ( 'NONE', *, *, #167, .T. ) ;
#127 = CARTESIAN_POINT ( 'NONE',  ( 9.077851480992146724E-15, 0.8499999999999987566, 2.600000000000000089 ) ) ;
#128 = EDGE_CURVE ( 'NONE', #122, #122, #243, .T. ) ;
#129 = ORIENTED_EDGE ( 'NONE', *, *, #37, .F. ) ;
#130 = VERTEX_POINT ( 'NONE', #50 ) ;
#131 = CARTESIAN_POINT ( 'NONE',  ( 9.077851480992146724E-15, -3.184081677783118191E-16, 2.600000000000000089 ) ) ;
#132 = ADVANCED_FACE ( 'NONE', ( #250, #302 ), #82, .F. ) ;
#133 = PRODUCT_DEFINITION_SHAPE ( 'NONE', 'NONE',  #93 ) ;
#134 = DIRECTION ( 'NONE',  ( 0.0000000000000000000, 1.000000000000000000, 0.0000000000000000000 ) ) ;
#135 = CARTESIAN_POINT ( 'NONE',  ( 1.920314736363723472E-13, -6.735557395310442615E-15, 55.00000000000000000 ) ) ;
#136 = FACE_OUTER_BOUND ( 'NONE', #255, .T. ) ;
#137 = ORIENTED_EDGE ( 'NONE', *, *, #180, .F. ) ;
#138 = DIRECTION ( 'NONE',  ( 3.491481338843133355E-15, -1.224646799147353207E-16, 1.000000000000000000 ) ) ;
#139 = CARTESIAN_POINT ( 'NONE',  ( 1.899365848330664545E-13, -6.662078587361601684E-15, 54.40000000000000568 ) ) ;
#140 = CALENDAR_DATE ( 2021, 13, 12 ) ;
#141 = APPLICATION_PROTOCOL_DEFINITION ( 'international standard', 'config_control_design', 1994, #75 ) ;
#142 = FACE_OUTER_BOUND ( 'NONE', #96, .T. ) ;
#143 = PERSON_AND_ORGANIZATION ( #5, #39 ) ;
#144 = CARTESIAN_POINT ( 'NONE',  ( 9.077851480992146724E-15, 6.373979076312882517E-33, 2.600000000000000089 ) ) ;
#145 = COORDINATED_UNIVERSAL_TIME_OFFSET ( 1, 0, .AHEAD. ) ;
#146 = APPLICATION_PROTOCOL_DEFINITION ( 'international standard', 'config_control_design', 1994, #55 ) ;
#147 = FACE_BOUND ( 'NONE', #25, .T. ) ;
#148 = ADVANCED_FACE ( 'NONE', ( #319, #88 ), #329, .T. ) ;
#149 = EDGE_LOOP ( 'NONE', ( #315 ) ) ;
#150 = AXIS2_PLACEMENT_3D ( 'NONE', #158, #277, #4 ) ;
#151 = ADVANCED_FACE ( 'NONE', ( #218 ), #214, .F. ) ;
#152 = CC_DESIGN_DATE_AND_TIME_ASSIGNMENT ( #3, #322, ( #60 ) ) ;
#153 = FACE_OUTER_BOUND ( 'NONE', #76, .T. ) ;
#154 = ORIENTED_EDGE ( 'NONE', *, *, #202, .T. ) ;
#155 = DIRECTION ( 'NONE',  ( 3.491481338843133355E-15, -1.224646799147353207E-16, 1.000000000000000000 ) ) ;
#156 = AXIS2_PLACEMENT_3D ( 'NONE', #265, #52, #103 ) ;
#157 = DIRECTION ( 'NONE',  ( 4.275831445896958607E-31, 1.000000000000000000, 1.224646799147353454E-16 ) ) ;
#158 = CARTESIAN_POINT ( 'NONE',  ( 4.957903501157248733E-14, -1.738998454789241549E-15, 14.19999999999999929 ) ) ;
#159 = DIRECTION ( 'NONE',  ( 0.0000000000000000000, -1.000000000000000000, 0.0000000000000000000 ) ) ;
#160 = APPROVAL_DATE_TIME ( #61, #259 ) ;
#161 = DIRECTION ( 'NONE',  ( -3.491481338843133355E-15, 1.224646799147353207E-16, -1.000000000000000000 ) ) ;
#162 = CARTESIAN_POINT ( 'NONE',  ( 1.920314736363723472E-13, 1.799711739194218455E-32, 55.00000000000000000 ) ) ;
#163 = DIRECTION ( 'NONE',  ( -3.491481338843133355E-15, 1.224646799147353207E-16, -1.000000000000000000 ) ) ;
#164 = AXIS2_PLACEMENT_3D ( 'NONE', #114, #54, #321 ) ;
#165 = CALENDAR_DATE ( 2021, 13, 12 ) ;
#166 = AXIS2_PLACEMENT_3D ( 'NONE', #100, #281, #226 ) ;
#167 = EDGE_CURVE ( 'NONE', #176, #176, #338, .T. ) ;
#168 = COORDINATED_UNIVERSAL_TIME_OFFSET ( 1, 0, .AHEAD. ) ;
#169 = DIRECTION ( 'NONE',  ( 3.491481338843133355E-15, -1.224646799147353207E-16, 1.000000000000000000 ) ) ;
#170 = EDGE_LOOP ( 'NONE', ( #285 ) ) ;
#171 = UNCERTAINTY_MEASURE_WITH_UNIT (LENGTH_MEASURE( 1.000000000000000082E-05 ), #326, 'distance_accuracy_value', 'NONE');
#172 = MANIFOLD_SOLID_BREP ( 'Corps-Déplacer/Copier1[2]', #207 ) ;
#173 = ORIENTED_EDGE ( 'NONE', *, *, #310, .T. ) ;
#174 = AXIS2_PLACEMENT_3D ( 'NONE', #63, #161, #31 ) ;
#175 = VERTEX_POINT ( 'NONE', #254 ) ;
#176 = VERTEX_POINT ( 'NONE', #22 ) ;
#177 = VERTEX_POINT ( 'NONE', #46 ) ;
#178 = EDGE_LOOP ( 'NONE', ( #199 ) ) ;
#179 = AXIS2_PLACEMENT_3D ( 'NONE', #139, #163, #279 ) ;
#180 = EDGE_CURVE ( 'NONE', #177, #177, #97, .T. ) ;
#181 = ORIENTED_EDGE ( 'NONE', *, *, #18, .T. ) ;
#182 = VERTEX_POINT ( 'NONE', #284 ) ;
#183 = EDGE_LOOP ( 'NONE', ( #15 ) ) ;
#184 = PLANE ( 'NONE',  #62 ) ;
#185 = DIRECTION ( 'NONE',  ( -4.275831445896958607E-31, -1.000000000000000000, -1.224646799147353207E-16 ) ) ;
#186 = DIRECTION ( 'NONE',  ( 0.0000000000000000000, 1.000000000000000000, 0.0000000000000000000 ) ) ;
#187 = PRODUCT_RELATED_PRODUCT_CATEGORY ( 'detail', '', ( #267 ) ) ;
#188 = CARTESIAN_POINT ( 'NONE',  ( 1.332287612930166874E-14, -4.673035890431551735E-16, 3.815823381635505829 ) ) ;
#189 = DATE_AND_TIME ( #165, #205 ) ;
#190 =( NAMED_UNIT ( * ) SI_UNIT ( $, .STERADIAN. ) SOLID_ANGLE_UNIT ( ) );
#191 = AXIS2_PLACEMENT_3D ( 'NONE', #188, #318, #86 ) ;
#192 =( GEOMETRIC_REPRESENTATION_CONTEXT ( 3 ) GLOBAL_UNCERTAINTY_ASSIGNED_CONTEXT ( ( #171 ) ) GLOBAL_UNIT_ASSIGNED_CONTEXT ( ( #326, #320, #190 ) ) REPRESENTATION_CONTEXT ( 'NONE', 'WORKASPACE' ) );
#193 = PLANE ( 'NONE',  #84 ) ;
#194 = FACE_OUTER_BOUND ( 'NONE', #229, .T. ) ;
#195 = DIRECTION ( 'NONE',  ( -4.275831445896958607E-31, -1.000000000000000000, -1.224646799147353207E-16 ) ) ;
#196 = ADVANCED_FACE ( 'NONE', ( #142, #34 ), #242, .T. ) ;
#197 = CARTESIAN_POINT ( 'NONE',  ( 1.361677722148821851E-14, -7.715986161407013176E-15, 3.899999999999999467 ) ) ;
#198 = PERSON_AND_ORGANIZATION_ROLE ( 'design_owner' ) ;
#199 = ORIENTED_EDGE ( 'NONE', *, *, #266, .T. ) ;
#200 = ORIENTED_EDGE ( 'NONE', *, *, #266, .F. ) ;
#201 = CARTESIAN_POINT ( 'NONE',  ( 0.0000000000000000000, 0.0000000000000000000, 0.0000000000000000000 ) ) ;
#202 = EDGE_CURVE ( 'NONE', #238, #238, #78, .T. ) ;
#203 = PLANE ( 'NONE',  #43 ) ;
#204 = CIRCLE ( 'NONE', #290, 0.8499999999999990896 ) ;
#205 = LOCAL_TIME ( 14, 56, 10.00000000000000000, #240 ) ;
#206 = CARTESIAN_POINT ( 'NONE',  ( -7.055015680982644895E-31, 0.8499999999999987566, -2.020636800344535758E-16 ) ) ;
#207 = CLOSED_SHELL ( 'NONE', ( #9, #196, #7 ) ) ;
#208 = ORIENTED_EDGE ( 'NONE', *, *, #251, .T. ) ;
#209 = EDGE_CURVE ( 'NONE', #182, #182, #273, .T. ) ;
#210 = EDGE_LOOP ( 'NONE', ( #154 ) ) ;
#211 = CYLINDRICAL_SURFACE ( 'NONE', #231, 2.999999999999996447 ) ;
#212 = APPROVAL ( #121, 'UNSPECIFIED' ) ;
#213 = PRODUCT_DEFINITION_FORMATION_WITH_SPECIFIED_SOURCE ( 'ANY', '', #267, .NOT_KNOWN. ) ;
#214 = PLANE ( 'NONE',  #309 ) ;
#215 = APPROVAL_DATE_TIME ( #293, #248 ) ;
#216 = ADVANCED_FACE ( 'NONE', ( #292, #2 ), #268, .T. ) ;
#217 = DIRECTION ( 'NONE',  ( 0.0000000000000000000, 1.000000000000000000, 0.0000000000000000000 ) ) ;
#218 = FACE_OUTER_BOUND ( 'NONE', #260, .T. ) ;
#219 = SHAPE_DEFINITION_REPRESENTATION ( #133, #8 ) ;
#220 = AXIS2_PLACEMENT_3D ( 'NONE', #90, #342, #1 ) ;
#221 = AXIS2_PLACEMENT_3D ( 'NONE', #197, #169, #74 ) ;
#222 = DIRECTION ( 'NONE',  ( -3.491481338843133355E-15, 1.224646799147353207E-16, -1.000000000000000000 ) ) ;
#223 = DIRECTION ( 'NONE',  ( -3.491481338843133355E-15, 1.224646799147353207E-16, -1.000000000000000000 ) ) ;
#224 = PERSON_AND_ORGANIZATION_ROLE ( 'creator' ) ;
#225 = DATE_TIME_ROLE ( 'creation_date' ) ;
#226 = DIRECTION ( 'NONE',  ( 0.0000000000000000000, 1.000000000000000000, 0.0000000000000000000 ) ) ;
#227 = AXIS2_PLACEMENT_3D ( 'NONE', #85, #324, #274 ) ;
#228 = LOCAL_TIME ( 14, 56, 10.00000000000000000, #253 ) ;
#229 = EDGE_LOOP ( 'NONE', ( #108 ) ) ;
#230 = ORIENTED_EDGE ( 'NONE', *, *, #167, .F. ) ;
#231 = AXIS2_PLACEMENT_3D ( 'NONE', #201, #45, #264 ) ;
#232 = CIRCLE ( 'NONE', #174, 0.8499999999999987566 ) ;
#233 = ORIENTED_EDGE ( 'NONE', *, *, #112, .F. ) ;
#234 = DIRECTION ( 'NONE',  ( 0.0000000000000000000, 1.000000000000000000, 0.0000000000000000000 ) ) ;
#235 = CYLINDRICAL_SURFACE ( 'NONE', #51, 2.949999999999999289 ) ;
#236 = AXIS2_PLACEMENT_3D ( 'NONE', #111, #246, #186 ) ;
#237 = CC_DESIGN_APPROVAL ( #248, ( #60 ) ) ;
#238 = VERTEX_POINT ( 'NONE', #16 ) ;
#239 = EDGE_LOOP ( 'NONE', ( #126 ) ) ;
#240 = COORDINATED_UNIVERSAL_TIME_OFFSET ( 1, 0, .AHEAD. ) ;
#241 = ORIENTED_EDGE ( 'NONE', *, *, #37, .T. ) ;
#242 = CYLINDRICAL_SURFACE ( 'NONE', #227, 0.8499999999999989786 ) ;
#243 = CIRCLE ( 'NONE', #296, 0.8499999999999992006 ) ;
#244 = FACE_BOUND ( 'NONE', #149, .T. ) ;
#245 = CALENDAR_DATE ( 2021, 13, 12 ) ;
#246 = DIRECTION ( 'NONE',  ( -3.491481338843133355E-15, 1.224646799147353207E-16, -1.000000000000000000 ) ) ;
#247 = APPROVAL_DATE_TIME ( #33, #212 ) ;
#248 = APPROVAL ( #66, 'UNSPECIFIED' ) ;
#249 = APPROVAL_ROLE ( '' ) ;
#250 = FACE_OUTER_BOUND ( 'NONE', #239, .T. ) ;
#251 = EDGE_CURVE ( 'NONE', #288, #288, #72, .T. ) ;
#252 = CARTESIAN_POINT ( 'NONE',  ( 4.957903501157248733E-14, -1.738998454789241549E-15, 14.19999999999999929 ) ) ;
#253 = COORDINATED_UNIVERSAL_TIME_OFFSET ( 1, 0, .AHEAD. ) ;
#254 = CARTESIAN_POINT ( 'NONE',  ( 1.920314736363723472E-13, 2.399999999999992362, 55.00000000000000000 ) ) ;
#255 = EDGE_LOOP ( 'NONE', ( #291 ) ) ;
#256 = VERTEX_POINT ( 'NONE', #331 ) ;
#257 = AXIS2_PLACEMENT_3D ( 'NONE', #135, #23, #134 ) ;
#258 = AXIS2_PLACEMENT_3D ( 'NONE', #65, #304, #40 ) ;
#259 = APPROVAL ( #70, 'UNSPECIFIED' ) ;
#260 = EDGE_LOOP ( 'NONE', ( #129 ) ) ;
#261 = ADVANCED_FACE ( 'NONE', ( #244, #272 ), #193, .F. ) ;
#262 = EDGE_LOOP ( 'NONE', ( #208 ) ) ;
#263 = CC_DESIGN_APPROVAL ( #212, ( #213 ) ) ;
#264 = DIRECTION ( 'NONE',  ( 4.275831445896958607E-31, 1.000000000000000000, 1.224646799147353207E-16 ) ) ;
#265 = CARTESIAN_POINT ( 'NONE',  ( -5.344736204997527097E-31, 1.874681102521931252E-32, -1.530793289809892332E-16 ) ) ;
#266 = EDGE_CURVE ( 'NONE', #336, #336, #232, .T. ) ;
#267 = PRODUCT ( '384641', '384641', '', ( #123 ) ) ;
#268 = CONICAL_SURFACE ( 'NONE', #164, 2.949999999999998845, 0.2094395102393127595 ) ;
#269 = AXIS2_PLACEMENT_3D ( 'NONE', #305, #95, #280 ) ;
#270 = EDGE_LOOP ( 'NONE', ( #335 ) ) ;
#271 = FACE_OUTER_BOUND ( 'NONE', #262, .T. ) ;
#272 = FACE_OUTER_BOUND ( 'NONE', #313, .T. ) ;
#273 = CIRCLE ( 'NONE', #236, 0.9115970911049517955 ) ;
#274 = DIRECTION ( 'NONE',  ( 4.275831445896958607E-31, 1.000000000000000000, 1.224646799147353207E-16 ) ) ;
#275 = PERSON_AND_ORGANIZATION_ROLE ( 'design_supplier' ) ;
#276 = PERSON_AND_ORGANIZATION ( #5, #39 ) ;
#277 = DIRECTION ( 'NONE',  ( -3.491481338843133355E-15, 1.224646799147353207E-16, -1.000000000000000000 ) ) ;
#278 = CARTESIAN_POINT ( 'NONE',  ( 1.187103655206665341E-14, -4.163799117101001052E-16, 3.400000000000000355 ) ) ;
#279 = DIRECTION ( 'NONE',  ( 0.0000000000000000000, 1.000000000000000000, 0.0000000000000000000 ) ) ;
#280 = DIRECTION ( 'NONE',  ( 1.000000000000000000, 0.0000000000000000000, 0.0000000000000000000 ) ) ;
#281 = DIRECTION ( 'NONE',  ( -3.491481338843133355E-15, 1.224646799147353207E-16, -1.000000000000000000 ) ) ;
#282 = CLOSED_SHELL ( 'NONE', ( #102, #299, #132, #148, #328, #216, #49, #261, #64, #306, #151 ) ) ;
#283 = CC_DESIGN_PERSON_AND_ORGANIZATION_ASSIGNMENT ( #143, #224, ( #213 ) ) ;
#284 = CARTESIAN_POINT ( 'NONE',  ( 1.361677722148821693E-14, 0.9115970911049513514, 3.899999999999999023 ) ) ;
#285 = ORIENTED_EDGE ( 'NONE', *, *, #209, .F. ) ;
#286 = CARTESIAN_POINT ( 'NONE',  ( 9.077851480992146724E-15, 6.373979076312882517E-33, 2.600000000000000089 ) ) ;
#287 = PERSON_AND_ORGANIZATION_ROLE ( 'creator' ) ;
#288 = VERTEX_POINT ( 'NONE', #42 ) ;
#289 = FACE_OUTER_BOUND ( 'NONE', #178, .T. ) ;
#290 = AXIS2_PLACEMENT_3D ( 'NONE', #19, #20, #53 ) ;
#291 = ORIENTED_EDGE ( 'NONE', *, *, #18, .F. ) ;
#292 = FACE_BOUND ( 'NONE', #183, .T. ) ;
#293 = DATE_AND_TIME ( #87, #44 ) ;
#294 = DIRECTION ( 'NONE',  ( 3.491481338843133355E-15, -1.224646799147353207E-16, 1.000000000000000000 ) ) ;
#295 = PERSON_AND_ORGANIZATION ( #5, #39 ) ;
#296 = AXIS2_PLACEMENT_3D ( 'NONE', #278, #222, #217 ) ;
#297 = AXIS2_PLACEMENT_3D ( 'NONE', #131, #339, #234 ) ;
#298 = DIRECTION ( 'NONE',  ( -4.275831445896958607E-31, -1.000000000000000000, -1.224646799147353207E-16 ) ) ;
#299 = ADVANCED_FACE ( 'NONE', ( #115, #194 ), #300, .T. ) ;
#300 = CYLINDRICAL_SURFACE ( 'NONE', #258, 0.8499999999999992006 ) ;
#301 = PERSON_AND_ORGANIZATION_ROLE ( 'classification_officer' ) ;
#302 = FACE_OUTER_BOUND ( 'NONE', #107, .T. ) ;
#303 = PERSON_AND_ORGANIZATION ( #5, #39 ) ;
#304 = DIRECTION ( 'NONE',  ( -3.491481338843133355E-15, 1.224646799147353207E-16, -1.000000000000000000 ) ) ;
#305 = CARTESIAN_POINT ( 'NONE',  ( 0.0000000000000000000, 0.0000000000000000000, 0.0000000000000000000 ) ) ;
#306 = ADVANCED_FACE ( 'NONE', ( #307, #147 ), #106, .T. ) ;
#307 = FACE_OUTER_BOUND ( 'NONE', #314, .T. ) ;
#308 = FACE_BOUND ( 'NONE', #170, .T. ) ;
#309 = AXIS2_PLACEMENT_3D ( 'NONE', #162, #92, #68 ) ;
#310 = EDGE_CURVE ( 'NONE', #130, #130, #323, .T. ) ;
#311 = CARTESIAN_POINT ( 'NONE',  ( 0.0000000000000000000, 0.0000000000000000000, 0.0000000000000000000 ) ) ;
#312 = CIRCLE ( 'NONE', #105, 2.999999999999993783 ) ;
#313 = EDGE_LOOP ( 'NONE', ( #340 ) ) ;
#314 = EDGE_LOOP ( 'NONE', ( #137 ) ) ;
#315 = ORIENTED_EDGE ( 'NONE', *, *, #251, .F. ) ;
#316 = CC_DESIGN_APPROVAL ( #259, ( #93 ) ) ;
#317 = LOCAL_TIME ( 14, 56, 10.00000000000000000, #168 ) ;
#318 = DIRECTION ( 'NONE',  ( -3.491481338843133355E-15, 1.224646799147353207E-16, -1.000000000000000000 ) ) ;
#319 = FACE_BOUND ( 'NONE', #80, .T. ) ;
#320 =( NAMED_UNIT ( * ) PLANE_ANGLE_UNIT ( ) SI_UNIT ( $, .RADIAN. ) );
#321 = DIRECTION ( 'NONE',  ( 0.0000000000000000000, -1.000000000000000000, 0.0000000000000000000 ) ) ;
#322 = DATE_TIME_ROLE ( 'classification_date' ) ;
#323 = CIRCLE ( 'NONE', #21, 2.949999999999998845 ) ;
#324 = DIRECTION ( 'NONE',  ( -3.491481338843133355E-15, 1.224646799147353207E-16, -1.000000000000000000 ) ) ;
#325 = CARTESIAN_POINT ( 'NONE',  ( 1.361677722148821693E-14, -4.776122516674676300E-16, 3.899999999999999023 ) ) ;
#326 =( LENGTH_UNIT ( ) NAMED_UNIT ( * ) SI_UNIT ( .MILLI., .METRE. ) );
#327 = FACE_OUTER_BOUND ( 'NONE', #210, .T. ) ;
#328 = ADVANCED_FACE ( 'NONE', ( #308, #327 ), #333, .F. ) ;
#329 = CONICAL_SURFACE ( 'NONE', #116, 0.9115970911049517955, 0.2094395102393246944 ) ;
#330 = CARTESIAN_POINT ( 'NONE',  ( 3.989858239493477652E-14, -1.399453884426706758E-15, 11.42740817516577856 ) ) ;
#331 = CARTESIAN_POINT ( 'NONE',  ( 4.957903501157248733E-14, 2.999999999999992450, 14.19999999999999929 ) ) ;
#332 = EDGE_LOOP ( 'NONE', ( #99 ) ) ;
#333 = PLANE ( 'NONE',  #221 ) ;
#334 = CIRCLE ( 'NONE', #297, 0.8499999999999990896 ) ;
#335 = ORIENTED_EDGE ( 'NONE', *, *, #310, .F. ) ;
#336 = VERTEX_POINT ( 'NONE', #206 ) ;
#337 = FACE_OUTER_BOUND ( 'NONE', #81, .T. ) ;
#338 = CIRCLE ( 'NONE', #191, 0.8937047985323850474 ) ;
#339 = DIRECTION ( 'NONE',  ( -3.491481338843133355E-15, 1.224646799147353207E-16, -1.000000000000000000 ) ) ;
#340 = ORIENTED_EDGE ( 'NONE', *, *, #112, .T. ) ;
#341 = DIRECTION ( 'NONE',  ( -3.491481338843133355E-15, 1.224646799147353207E-16, -1.000000000000000000 ) ) ;
#342 = DIRECTION ( 'NONE',  ( -3.491481338843133355E-15, 1.224646799147353207E-16, -1.000000000000000000 ) ) ;
#343 = CC_DESIGN_DATE_AND_TIME_ASSIGNMENT ( #189, #225, ( #93 ) ) ;
ENDSEC;
END-ISO-10303-21;
