ISO-10303-21;
HEADER;
FILE_DESCRIPTION (( 'STEP AP203' ),
    '1' );
FILE_NAME ('38383.step',
    '2021-12-06T12:59:37',
    ( '' ),
    ( '' ),
    'SwSTEP 2.0',
    'SolidWorks 2019',
    '' );
FILE_SCHEMA (( 'CONFIG_CONTROL_DESIGN' ));
ENDSEC;

DATA;
#1 = COORDINATED_UNIVERSAL_TIME_OFFSET ( 1, 0, .AHEAD. ) ;
#2 = DATE_TIME_ROLE ( 'creation_date' ) ;
#3 = APPROVAL_PERSON_ORGANIZATION ( #14, #19, #118 ) ;
#4 = EDGE_LOOP ( 'NONE', ( #127 ) ) ;
#5 = COORDINATED_UNIVERSAL_TIME_OFFSET ( 1, 0, .AHEAD. ) ;
#6 = EDGE_LOOP ( 'NONE', ( #137 ) ) ;
#7 = FACE_OUTER_BOUND ( 'NONE', #114, .T. ) ;
#8 = AXIS2_PLACEMENT_3D ( 'NONE', #72, #26, #136 ) ;
#9 = DIRECTION ( 'NONE',  ( -7.126385743161595926E-31, -1.000000000000000000, -2.041077998578921601E-16 ) ) ;
#10 = APPLICATION_CONTEXT ( 'configuration controlled 3d designs of mechanical parts and assemblies' ) ;
#11 = VERTEX_POINT ( 'NONE', #68 ) ;
#12 = CARTESIAN_POINT ( 'NONE',  ( 0.0000000000000000000, 0.0000000000000000000, 0.0000000000000000000 ) ) ;
#13 = APPLICATION_CONTEXT ( 'configuration controlled 3d designs of mechanical parts and assemblies' ) ;
#14 = PERSON_AND_ORGANIZATION ( #43, #77 ) ;
#15 = APPROVAL_DATE_TIME ( #60, #19 ) ;
#16 = CARTESIAN_POINT ( 'NONE',  ( 4.189777606611723739E-15, -2.449293598294685214E-16, 1.199999999999989742 ) ) ;
#17 =( GEOMETRIC_REPRESENTATION_CONTEXT ( 3 ) GLOBAL_UNCERTAINTY_ASSIGNED_CONTEXT ( ( #32 ) ) GLOBAL_UNIT_ASSIGNED_CONTEXT ( ( #46, #121, #132 ) ) REPRESENTATION_CONTEXT ( 'NONE', 'WORKASPACE' ) );
#18 = COORDINATED_UNIVERSAL_TIME_OFFSET ( 1, 0, .AHEAD. ) ;
#19 = APPROVAL ( #71, 'UNSPECIFIED' ) ;
#20 = PERSON_AND_ORGANIZATION_ROLE ( 'creator' ) ;
#21 = FACE_OUTER_BOUND ( 'NONE', #105, .T. ) ;
#22 = APPROVAL_ROLE ( '' ) ;
#23 = COORDINATED_UNIVERSAL_TIME_OFFSET ( 1, 0, .AHEAD. ) ;
#24 = ORIENTED_EDGE ( 'NONE', *, *, #147, .F. ) ;
#25 = CARTESIAN_POINT ( 'NONE',  ( 0.0000000000000000000, 0.0000000000000000000, 0.0000000000000000000 ) ) ;
#26 = DIRECTION ( 'NONE',  ( -3.491481338843133355E-15, 2.041077998578921601E-16, -1.000000000000000000 ) ) ;
#27 = DIRECTION ( 'NONE',  ( 7.126385743161595926E-31, 1.000000000000000000, 2.041077998578921355E-16 ) ) ;
#28 = VERTEX_POINT ( 'NONE', #106 ) ;
#29 = AXIS2_PLACEMENT_3D ( 'NONE', #16, #81, #80 ) ;
#30 = CC_DESIGN_PERSON_AND_ORGANIZATION_ASSIGNMENT ( #94, #134, ( #57 ) ) ;
#31 = CALENDAR_DATE ( 2021, 6, 12 ) ;
#32 = UNCERTAINTY_MEASURE_WITH_UNIT (LENGTH_MEASURE( 1.000000000000000082E-05 ), #46, 'distance_accuracy_value', 'NONE');
#33 = PERSON_AND_ORGANIZATION ( #43, #77 ) ;
#34 = CALENDAR_DATE ( 2021, 6, 12 ) ;
#35 = CC_DESIGN_DATE_AND_TIME_ASSIGNMENT ( #122, #75, ( #38 ) ) ;
#36 = CIRCLE ( 'NONE', #29, 50.00000000000000000 ) ;
#37 = PLANE ( 'NONE',  #123 ) ;
#38 = SECURITY_CLASSIFICATION ( '', '', #165 ) ;
#39 = CC_DESIGN_DATE_AND_TIME_ASSIGNMENT ( #160, #2, ( #113 ) ) ;
#40 = CARTESIAN_POINT ( 'NONE',  ( -7.839024317477756570E-30, 4.582599335911229463E-31, -2.245185798436813416E-15 ) ) ;
#41 = PRODUCT_RELATED_PRODUCT_CATEGORY ( 'detail', '', ( #57 ) ) ;
#42 = LOCAL_TIME ( 13, 59, 37.00000000000000000, #5 ) ;
#43 = PERSON ( 'UNSPECIFIED', 'UNSPECIFIED', 'UNSPECIFIED', ('UNSPECIFIED'), ('UNSPECIFIED'), ('UNSPECIFIED') ) ;
#44 = APPROVAL ( #84, 'UNSPECIFIED' ) ;
#45 = COORDINATED_UNIVERSAL_TIME_OFFSET ( 1, 0, .AHEAD. ) ;
#46 =( LENGTH_UNIT ( ) NAMED_UNIT ( * ) SI_UNIT ( .MILLI., .METRE. ) );
#47 = CALENDAR_DATE ( 2021, 6, 12 ) ;
#48 = CIRCLE ( 'NONE', #8, 11.00000000000000000 ) ;
#49 = ORIENTED_EDGE ( 'NONE', *, *, #78, .F. ) ;
#50 = LOCAL_TIME ( 13, 59, 37.00000000000000000, #23 ) ;
#51 = ORIENTED_EDGE ( 'NONE', *, *, #103, .T. ) ;
#52 = CYLINDRICAL_SURFACE ( 'NONE', #104, 50.00000000000000000 ) ;
#53 = FACE_OUTER_BOUND ( 'NONE', #65, .T. ) ;
#54 = ADVANCED_FACE ( 'NONE', ( #87, #53 ), #52, .T. ) ;
#55 = AXIS2_PLACEMENT_3D ( 'NONE', #130, #83, #157 ) ;
#56 = APPLICATION_PROTOCOL_DEFINITION ( 'international standard', 'config_control_design', 1994, #13 ) ;
#57 = PRODUCT ( '38383', '38383', '', ( #119 ) ) ;
#58 = CLOSED_SHELL ( 'NONE', ( #59, #54, #69, #74 ) ) ;
#59 = ADVANCED_FACE ( 'NONE', ( #7, #112 ), #99, .T. ) ;
#60 = DATE_AND_TIME ( #108, #63 ) ;
#61 = SHAPE_DEFINITION_REPRESENTATION ( #117, #88 ) ;
#62 = PERSON_AND_ORGANIZATION ( #43, #77 ) ;
#63 = LOCAL_TIME ( 13, 59, 37.00000000000000000, #1 ) ;
#64 = CARTESIAN_POINT ( 'NONE',  ( 0.0000000000000000000, 0.0000000000000000000, 0.0000000000000000000 ) ) ;
#65 = EDGE_LOOP ( 'NONE', ( #24 ) ) ;
#66 = CARTESIAN_POINT ( 'NONE',  ( -1.389645219916511188E-29, 11.00000000000000000, -3.980102097228897048E-15 ) ) ;
#67 = EDGE_LOOP ( 'NONE', ( #51 ) ) ;
#68 = CARTESIAN_POINT ( 'NONE',  ( 4.189777606611759237E-15, 11.00000000000000000, 1.199999999999999956 ) ) ;
#69 = ADVANCED_FACE ( 'NONE', ( #142, #21 ), #37, .T. ) ;
#70 = PRODUCT_DEFINITION_FORMATION_WITH_SPECIFIED_SOURCE ( 'ANY', '', #57, .NOT_KNOWN. ) ;
#71 = APPROVAL_STATUS ( 'not_yet_approved' ) ;
#72 = CARTESIAN_POINT ( 'NONE',  ( 4.189777606611752138E-15, -2.449293598294701484E-16, 1.199999999999997735 ) ) ;
#73 = DIRECTION ( 'NONE',  ( -3.491481338843133355E-15, 2.041077998578921601E-16, -1.000000000000000000 ) ) ;
#74 = ADVANCED_FACE ( 'NONE', ( #89, #154 ), #91, .F. ) ;
#75 = DATE_TIME_ROLE ( 'classification_date' ) ;
#76 = EDGE_CURVE ( 'NONE', #11, #11, #48, .T. ) ;
#77 = ORGANIZATION ( 'UNSPECIFIED', 'UNSPECIFIED', '' ) ;
#78 = EDGE_CURVE ( 'NONE', #92, #92, #155, .T. ) ;
#79 = ORIENTED_EDGE ( 'NONE', *, *, #103, .F. ) ;
#80 = DIRECTION ( 'NONE',  ( 7.087422195345027939E-31, 1.000000000000000000, 2.038300084272748336E-16 ) ) ;
#81 = DIRECTION ( 'NONE',  ( -3.491481338843133355E-15, 2.041077998578921601E-16, -1.000000000000000000 ) ) ;
#82 = AXIS2_PLACEMENT_3D ( 'NONE', #12, #107, #116 ) ;
#83 = DIRECTION ( 'NONE',  ( -3.491481338843133355E-15, 2.041077998578921601E-16, -1.000000000000000000 ) ) ;
#84 = APPROVAL_STATUS ( 'not_yet_approved' ) ;
#85 = CC_DESIGN_APPROVAL ( #19, ( #113 ) ) ;
#86 = CALENDAR_DATE ( 2021, 6, 12 ) ;
#87 = FACE_OUTER_BOUND ( 'NONE', #67, .T. ) ;
#88 = ADVANCED_BREP_SHAPE_REPRESENTATION ( '38383', ( #162, #82 ), #17 ) ;
#89 = FACE_OUTER_BOUND ( 'NONE', #125, .T. ) ;
#90 = CC_DESIGN_SECURITY_CLASSIFICATION ( #38, ( #70 ) ) ;
#91 = CYLINDRICAL_SURFACE ( 'NONE', #146, 11.00000000000000000 ) ;
#92 = VERTEX_POINT ( 'NONE', #143 ) ;
#93 = CARTESIAN_POINT ( 'NONE',  ( 4.189777606611759237E-15, 50.00000000000000000, 1.199999999999999956 ) ) ;
#94 = PERSON_AND_ORGANIZATION ( #43, #77 ) ;
#95 = DIRECTION ( 'NONE',  ( 7.126385743161595926E-31, 1.000000000000000000, 2.041077998578921355E-16 ) ) ;
#96 = PERSON_AND_ORGANIZATION ( #43, #77 ) ;
#97 = DATE_AND_TIME ( #86, #42 ) ;
#98 = CC_DESIGN_PERSON_AND_ORGANIZATION_ASSIGNMENT ( #109, #152, ( #70 ) ) ;
#99 = PLANE ( 'NONE',  #120 ) ;
#100 = APPROVAL_DATE_TIME ( #97, #44 ) ;
#101 = DIRECTION ( 'NONE',  ( 7.126385743161595926E-31, 1.000000000000000000, 2.041077998578921601E-16 ) ) ;
#102 = DIRECTION ( 'NONE',  ( 7.126385743161595926E-31, 1.000000000000000000, 2.041077998578921601E-16 ) ) ;
#103 = EDGE_CURVE ( 'NONE', #145, #145, #36, .T. ) ;
#104 = AXIS2_PLACEMENT_3D ( 'NONE', #64, #156, #102 ) ;
#105 = EDGE_LOOP ( 'NONE', ( #79 ) ) ;
#106 = CARTESIAN_POINT ( 'NONE',  ( 0.0000000000000000000, 50.00000000000000000, 0.0000000000000000000 ) ) ;
#107 = DIRECTION ( 'NONE',  ( 0.0000000000000000000, 0.0000000000000000000, 1.000000000000000000 ) ) ;
#108 = CALENDAR_DATE ( 2021, 6, 12 ) ;
#109 = PERSON_AND_ORGANIZATION ( #43, #77 ) ;
#110 = CC_DESIGN_PERSON_AND_ORGANIZATION_ASSIGNMENT ( #33, #159, ( #113 ) ) ;
#111 = PERSON_AND_ORGANIZATION ( #43, #77 ) ;
#112 = FACE_BOUND ( 'NONE', #140, .T. ) ;
#113 = PRODUCT_DEFINITION ( 'UNKNOWN', '', #70, #135 ) ;
#114 = EDGE_LOOP ( 'NONE', ( #139 ) ) ;
#115 = AXIS2_PLACEMENT_3D ( 'NONE', #40, #73, #27 ) ;
#116 = DIRECTION ( 'NONE',  ( 1.000000000000000000, 0.0000000000000000000, 0.0000000000000000000 ) ) ;
#117 = PRODUCT_DEFINITION_SHAPE ( 'NONE', 'NONE',  #113 ) ;
#118 = APPROVAL_ROLE ( '' ) ;
#119 = MECHANICAL_CONTEXT ( 'NONE', #13, 'mechanical' ) ;
#120 = AXIS2_PLACEMENT_3D ( 'NONE', #66, #167, #101 ) ;
#121 =( NAMED_UNIT ( * ) PLANE_ANGLE_UNIT ( ) SI_UNIT ( $, .RADIAN. ) );
#122 = DATE_AND_TIME ( #34, #169 ) ;
#123 = AXIS2_PLACEMENT_3D ( 'NONE', #166, #141, #9 ) ;
#124 = APPROVAL_STATUS ( 'not_yet_approved' ) ;
#125 = EDGE_LOOP ( 'NONE', ( #168 ) ) ;
#126 = LOCAL_TIME ( 13, 59, 37.00000000000000000, #45 ) ;
#127 = ORIENTED_EDGE ( 'NONE', *, *, #76, .T. ) ;
#128 = DIRECTION ( 'NONE',  ( -3.491481338843133355E-15, 2.041077998578921601E-16, -1.000000000000000000 ) ) ;
#129 = APPROVAL ( #124, 'UNSPECIFIED' ) ;
#130 = CARTESIAN_POINT ( 'NONE',  ( -3.563192871580798033E-29, 2.082999698141467922E-30, -1.020538999289460830E-14 ) ) ;
#131 = APPROVAL_PERSON_ORGANIZATION ( #96, #44, #22 ) ;
#132 =( NAMED_UNIT ( * ) SI_UNIT ( $, .STERADIAN. ) SOLID_ANGLE_UNIT ( ) );
#133 = CIRCLE ( 'NONE', #55, 50.00000000000000000 ) ;
#134 = PERSON_AND_ORGANIZATION_ROLE ( 'design_owner' ) ;
#135 = DESIGN_CONTEXT ( 'detailed design', #10, 'design' ) ;
#136 = DIRECTION ( 'NONE',  ( 7.003381615953585159E-31, 1.000000000000000000, 1.971276677246371765E-16 ) ) ;
#137 = ORIENTED_EDGE ( 'NONE', *, *, #76, .F. ) ;
#138 = APPROVAL_ROLE ( '' ) ;
#139 = ORIENTED_EDGE ( 'NONE', *, *, #147, .T. ) ;
#140 = EDGE_LOOP ( 'NONE', ( #49 ) ) ;
#141 = DIRECTION ( 'NONE',  ( 3.491481338843133355E-15, -2.041077998578921601E-16, 1.000000000000000000 ) ) ;
#142 = FACE_BOUND ( 'NONE', #4, .T. ) ;
#143 = CARTESIAN_POINT ( 'NONE',  ( -1.368455531567204171E-45, 11.00000000000000000, 0.0000000000000000000 ) ) ;
#144 = CC_DESIGN_PERSON_AND_ORGANIZATION_ASSIGNMENT ( #62, #20, ( #70 ) ) ;
#145 = VERTEX_POINT ( 'NONE', #93 ) ;
#146 = AXIS2_PLACEMENT_3D ( 'NONE', #25, #128, #95 ) ;
#147 = EDGE_CURVE ( 'NONE', #28, #28, #133, .T. ) ;
#148 = APPLICATION_PROTOCOL_DEFINITION ( 'international standard', 'config_control_design', 1994, #10 ) ;
#149 = DATE_AND_TIME ( #47, #50 ) ;
#150 = CC_DESIGN_APPROVAL ( #44, ( #70 ) ) ;
#151 = PERSON_AND_ORGANIZATION ( #43, #77 ) ;
#152 = PERSON_AND_ORGANIZATION_ROLE ( 'design_supplier' ) ;
#153 = CC_DESIGN_PERSON_AND_ORGANIZATION_ASSIGNMENT ( #151, #161, ( #38 ) ) ;
#154 = FACE_OUTER_BOUND ( 'NONE', #6, .T. ) ;
#155 = CIRCLE ( 'NONE', #115, 11.00000000000000000 ) ;
#156 = DIRECTION ( 'NONE',  ( -3.491481338843133355E-15, 2.041077998578921601E-16, -1.000000000000000000 ) ) ;
#157 = DIRECTION ( 'NONE',  ( 7.126385743161595926E-31, 1.000000000000000000, 2.041077998578921601E-16 ) ) ;
#158 = CC_DESIGN_APPROVAL ( #129, ( #38 ) ) ;
#159 = PERSON_AND_ORGANIZATION_ROLE ( 'creator' ) ;
#160 = DATE_AND_TIME ( #31, #126 ) ;
#161 = PERSON_AND_ORGANIZATION_ROLE ( 'classification_officer' ) ;
#162 = MANIFOLD_SOLID_BREP ( 'Corps-Déplacer/Copier1', #58 ) ;
#163 = APPROVAL_DATE_TIME ( #149, #129 ) ;
#164 = APPROVAL_PERSON_ORGANIZATION ( #111, #129, #138 ) ;
#165 = SECURITY_CLASSIFICATION_LEVEL ( 'unclassified' ) ;
#166 = CARTESIAN_POINT ( 'NONE',  ( 4.189777606611745827E-15, 11.00000000000000000, 1.199999999999995959 ) ) ;
#167 = DIRECTION ( 'NONE',  ( -3.491481338843133355E-15, 2.041077998578921601E-16, -1.000000000000000000 ) ) ;
#168 = ORIENTED_EDGE ( 'NONE', *, *, #78, .T. ) ;
#169 = LOCAL_TIME ( 13, 59, 37.00000000000000000, #18 ) ;
ENDSEC;
END-ISO-10303-21;
