ISO-10303-21;
HEADER;
FILE_DESCRIPTION (( 'STEP AP203' ),
    '1' );
FILE_NAME ('38364.step',
    '2021-10-07T13:47:54',
    ( '' ),
    ( '' ),
    'SwSTEP 2.0',
    'SolidWorks 2019',
    '' );
FILE_SCHEMA (( 'CONFIG_CONTROL_DESIGN' ));
ENDSEC;

DATA;
#1 = PLANE ( 'NONE',  #199 ) ;
#2 = APPROVAL_ROLE ( '' ) ;
#3 = CC_DESIGN_PERSON_AND_ORGANIZATION_ASSIGNMENT ( #188, #190, ( #69 ) ) ;
#4 = COORDINATED_UNIVERSAL_TIME_OFFSET ( 1, 0, .AHEAD. ) ;
#5 = ORIENTED_EDGE ( 'NONE', *, *, #101, .T. ) ;
#6 = DIRECTION ( 'NONE',  ( 0.0000000000000000000, 1.000000000000000000, 0.0000000000000000000 ) ) ;
#7 = CARTESIAN_POINT ( 'NONE',  ( 1.745740669421566678E-14, -6.123233995736766282E-16, 5.000000000000000000 ) ) ;
#8 = ADVANCED_FACE ( 'NONE', ( #134 ), #214, .T. ) ;
#9 = SECURITY_CLASSIFICATION ( '', '', #173 ) ;
#10 = DIRECTION ( 'NONE',  ( 0.0000000000000000000, -1.000000000000000000, 0.0000000000000000000 ) ) ;
#11 = PRODUCT_DEFINITION_SHAPE ( 'NONE', 'NONE',  #32 ) ;
#12 = CARTESIAN_POINT ( 'NONE',  ( 1.047444401652940007E-13, 0.3999999999999963585, 30.00000000000000000 ) ) ;
#13 = APPROVAL_PERSON_ORGANIZATION ( #168, #36, #144 ) ;
#14 = VERTEX_POINT ( 'NONE', #61 ) ;
#15 = CARTESIAN_POINT ( 'NONE',  ( 1.043952920314096810E-13, 0.4999999999999962252, 29.89999999999999858 ) ) ;
#16 = CARTESIAN_POINT ( 'NONE',  ( 1.993317998676153055E-14, 0.4999999999999963363, 5.709089653438097933 ) ) ;
#17 = AXIS2_PLACEMENT_3D ( 'NONE', #18, #149, #182 ) ;
#18 = CARTESIAN_POINT ( 'NONE',  ( 1.745740669421566678E-14, -6.123233995736766282E-16, 5.000000000000000000 ) ) ;
#19 = PRODUCT_RELATED_PRODUCT_CATEGORY ( 'detail', '', ( #220 ) ) ;
#20 = COORDINATED_UNIVERSAL_TIME_OFFSET ( 1, 0, .AHEAD. ) ;
#21 = PERSON_AND_ORGANIZATION ( #176, #67 ) ;
#22 = EDGE_LOOP ( 'NONE', ( #194 ) ) ;
#23 = PERSON_AND_ORGANIZATION ( #176, #67 ) ;
#24 = ORIENTED_EDGE ( 'NONE', *, *, #104, .F. ) ;
#25 = DESIGN_CONTEXT ( 'detailed design', #38, 'design' ) ;
#26 = DIRECTION ( 'NONE',  ( 0.0000000000000000000, 0.0000000000000000000, 1.000000000000000000 ) ) ;
#27 = DIRECTION ( 'NONE',  ( -3.491481338843133355E-15, 1.224646799147353207E-16, -1.000000000000000000 ) ) ;
#28 = AXIS2_PLACEMENT_3D ( 'NONE', #187, #49, #126 ) ;
#29 = FACE_OUTER_BOUND ( 'NONE', #85, .T. ) ;
#30 = ADVANCED_BREP_SHAPE_REPRESENTATION ( '38364', ( #34, #33, #146 ), #64 ) ;
#31 = DIRECTION ( 'NONE',  ( -3.491481338843133355E-15, 1.224646799147353207E-16, -1.000000000000000000 ) ) ;
#32 = PRODUCT_DEFINITION ( 'UNKNOWN', '', #69, #25 ) ;
#33 = MANIFOLD_SOLID_BREP ( 'Corps-Déplacer/Copier1[2]', #212 ) ;
#34 = MANIFOLD_SOLID_BREP ( 'Corps-Déplacer/Copier1[1]', #192 ) ;
#35 = CC_DESIGN_APPROVAL ( #218, ( #9 ) ) ;
#36 = APPROVAL ( #50, 'UNSPECIFIED' ) ;
#37 = AXIS2_PLACEMENT_3D ( 'NONE', #108, #110, #166 ) ;
#38 = APPLICATION_CONTEXT ( 'configuration controlled 3d designs of mechanical parts and assemblies' ) ;
#39 = VERTEX_POINT ( 'NONE', #43 ) ;
#40 = CIRCLE ( 'NONE', #204, 0.4000000000000000222 ) ;
#41 = CC_DESIGN_PERSON_AND_ORGANIZATION_ASSIGNMENT ( #79, #133, ( #220 ) ) ;
#42 = VERTEX_POINT ( 'NONE', #15 ) ;
#43 = CARTESIAN_POINT ( 'NONE',  ( 1.745740669421566678E-14, 0.3099999999999989431, 5.000000000000000000 ) ) ;
#44 = CYLINDRICAL_SURFACE ( 'NONE', #37, 0.3099999999999991651 ) ;
#45 = PERSON_AND_ORGANIZATION_ROLE ( 'creator' ) ;
#46 = APPLICATION_CONTEXT ( 'configuration controlled 3d designs of mechanical parts and assemblies' ) ;
#47 = CARTESIAN_POINT ( 'NONE',  ( 1.047444401652940007E-13, -3.673940397442059178E-15, 30.00000000000000000 ) ) ;
#48 = DIRECTION ( 'NONE',  ( 1.000000000000000000, 0.0000000000000000000, 0.0000000000000000000 ) ) ;
#49 = DIRECTION ( 'NONE',  ( -3.491481338843133355E-15, 1.224646799147353207E-16, -1.000000000000000000 ) ) ;
#50 = APPROVAL_STATUS ( 'not_yet_approved' ) ;
#51 = UNCERTAINTY_MEASURE_WITH_UNIT (LENGTH_MEASURE( 1.000000000000000082E-05 ), #107, 'distance_accuracy_value', 'NONE');
#52 = DATE_AND_TIME ( #65, #178 ) ;
#53 = EDGE_LOOP ( 'NONE', ( #216 ) ) ;
#54 = CALENDAR_DATE ( 2021, 7, 10 ) ;
#55 = DIRECTION ( 'NONE',  ( -4.275831445896958607E-31, -1.000000000000000000, -1.224646799147353207E-16 ) ) ;
#56 = CYLINDRICAL_SURFACE ( 'NONE', #151, 0.4999999999999985012 ) ;
#57 = FACE_OUTER_BOUND ( 'NONE', #70, .T. ) ;
#58 = CC_DESIGN_PERSON_AND_ORGANIZATION_ASSIGNMENT ( #21, #45, ( #69 ) ) ;
#59 = VERTEX_POINT ( 'NONE', #16 ) ;
#60 = CC_DESIGN_DATE_AND_TIME_ASSIGNMENT ( #63, #193, ( #32 ) ) ;
#61 = CARTESIAN_POINT ( 'NONE',  ( 1.745740669421566678E-14, 0.3099999999999989431, 5.000000000000000000 ) ) ;
#62 = EDGE_CURVE ( 'NONE', #42, #42, #83, .T. ) ;
#63 = DATE_AND_TIME ( #112, #87 ) ;
#64 =( GEOMETRIC_REPRESENTATION_CONTEXT ( 3 ) GLOBAL_UNCERTAINTY_ASSIGNED_CONTEXT ( ( #51 ) ) GLOBAL_UNIT_ASSIGNED_CONTEXT ( ( #107, #90, #163 ) ) REPRESENTATION_CONTEXT ( 'NONE', 'WORKASPACE' ) );
#65 = CALENDAR_DATE ( 2021, 7, 10 ) ;
#66 = PERSON_AND_ORGANIZATION ( #176, #67 ) ;
#67 = ORGANIZATION ( 'UNSPECIFIED', 'UNSPECIFIED', '' ) ;
#68 = EDGE_LOOP ( 'NONE', ( #24 ) ) ;
#69 = PRODUCT_DEFINITION_FORMATION_WITH_SPECIFIED_SOURCE ( 'ANY', '', #220, .NOT_KNOWN. ) ;
#70 = EDGE_LOOP ( 'NONE', ( #103 ) ) ;
#71 = ADVANCED_FACE ( 'NONE', ( #198, #57 ), #56, .T. ) ;
#72 = FACE_BOUND ( 'NONE', #213, .T. ) ;
#73 = ORIENTED_EDGE ( 'NONE', *, *, #75, .T. ) ;
#74 = DIRECTION ( 'NONE',  ( 0.0000000000000000000, 1.000000000000000000, 0.0000000000000000000 ) ) ;
#75 = EDGE_CURVE ( 'NONE', #39, #39, #200, .T. ) ;
#76 = LOCAL_TIME ( 15, 47, 54.00000000000000000, #99 ) ;
#77 = ADVANCED_FACE ( 'NONE', ( #72, #217 ), #80, .T. ) ;
#78 = FACE_BOUND ( 'NONE', #135, .T. ) ;
#79 = PERSON_AND_ORGANIZATION ( #176, #67 ) ;
#80 = CONICAL_SURFACE ( 'NONE', #219, 0.4999999999999970024, 0.2617993877991421359 ) ;
#81 = APPROVAL_STATUS ( 'not_yet_approved' ) ;
#82 = APPROVAL_ROLE ( '' ) ;
#83 = CIRCLE ( 'NONE', #93, 0.4999999999999998890 ) ;
#84 = EDGE_LOOP ( 'NONE', ( #174 ) ) ;
#85 = EDGE_LOOP ( 'NONE', ( #159 ) ) ;
#86 = EDGE_LOOP ( 'NONE', ( #179 ) ) ;
#87 = LOCAL_TIME ( 15, 47, 54.00000000000000000, #206 ) ;
#88 = EDGE_CURVE ( 'NONE', #223, #223, #162, .T. ) ;
#89 = APPROVAL_PERSON_ORGANIZATION ( #121, #218, #2 ) ;
#90 =( NAMED_UNIT ( * ) PLANE_ANGLE_UNIT ( ) SI_UNIT ( $, .RADIAN. ) );
#91 = CC_DESIGN_PERSON_AND_ORGANIZATION_ASSIGNMENT ( #211, #129, ( #32 ) ) ;
#92 = AXIS2_PLACEMENT_3D ( 'NONE', #202, #180, #125 ) ;
#93 = AXIS2_PLACEMENT_3D ( 'NONE', #117, #157, #6 ) ;
#94 = VERTEX_POINT ( 'NONE', #12 ) ;
#95 = FACE_OUTER_BOUND ( 'NONE', #86, .T. ) ;
#96 = ADVANCED_FACE ( 'NONE', ( #105 ), #160, .F. ) ;
#97 = DATE_AND_TIME ( #143, #140 ) ;
#98 = DIRECTION ( 'NONE',  ( -3.491481338843133355E-15, 1.224646799147353207E-16, -1.000000000000000000 ) ) ;
#99 = COORDINATED_UNIVERSAL_TIME_OFFSET ( 1, 0, .AHEAD. ) ;
#100 = ORIENTED_EDGE ( 'NONE', *, *, #104, .T. ) ;
#101 = EDGE_CURVE ( 'NONE', #94, #94, #40, .T. ) ;
#102 = CIRCLE ( 'NONE', #109, 0.4999999999999970024 ) ;
#103 = ORIENTED_EDGE ( 'NONE', *, *, #62, .T. ) ;
#104 = EDGE_CURVE ( 'NONE', #59, #59, #102, .T. ) ;
#105 = FACE_OUTER_BOUND ( 'NONE', #53, .T. ) ;
#106 = AXIS2_PLACEMENT_3D ( 'NONE', #47, #98, #74 ) ;
#107 =( LENGTH_UNIT ( ) NAMED_UNIT ( * ) SI_UNIT ( .MILLI., .METRE. ) );
#108 = CARTESIAN_POINT ( 'NONE',  ( 0.0000000000000000000, 0.0000000000000000000, 0.0000000000000000000 ) ) ;
#109 = AXIS2_PLACEMENT_3D ( 'NONE', #115, #27, #150 ) ;
#110 = DIRECTION ( 'NONE',  ( -3.491481338843133355E-15, 1.224646799147353207E-16, -1.000000000000000000 ) ) ;
#111 = APPROVAL_DATE_TIME ( #175, #218 ) ;
#112 = CALENDAR_DATE ( 2021, 7, 10 ) ;
#113 = DIRECTION ( 'NONE',  ( -3.491481338843133355E-15, 1.224646799147353207E-16, -1.000000000000000000 ) ) ;
#114 = PERSON_AND_ORGANIZATION_ROLE ( 'classification_officer' ) ;
#115 = CARTESIAN_POINT ( 'NONE',  ( 1.993317998676153055E-14, -6.991618370128238313E-16, 5.709089653438097933 ) ) ;
#116 = CC_DESIGN_APPROVAL ( #36, ( #69 ) ) ;
#117 = CARTESIAN_POINT ( 'NONE',  ( 1.043952920314096810E-13, -3.661693929450586610E-15, 29.89999999999999858 ) ) ;
#118 = CALENDAR_DATE ( 2021, 7, 10 ) ;
#119 = ADVANCED_FACE ( 'NONE', ( #185 ), #1, .F. ) ;
#120 = ORIENTED_EDGE ( 'NONE', *, *, #189, .T. ) ;
#121 = PERSON_AND_ORGANIZATION ( #176, #67 ) ;
#122 = CARTESIAN_POINT ( 'NONE',  ( 0.0000000000000000000, 0.0000000000000000000, 0.0000000000000000000 ) ) ;
#123 = DIRECTION ( 'NONE',  ( 3.491481338843133355E-15, -1.224646799147353207E-16, 1.000000000000000000 ) ) ;
#124 = CC_DESIGN_SECURITY_CLASSIFICATION ( #9, ( #69 ) ) ;
#125 = DIRECTION ( 'NONE',  ( 3.106338619979425097E-31, 1.000000000000000000, 8.743565907141199780E-17 ) ) ;
#126 = DIRECTION ( 'NONE',  ( 4.275831445896958607E-31, 1.000000000000000000, 1.224646799147353207E-16 ) ) ;
#127 = CONICAL_SURFACE ( 'NONE', #106, 0.4000000000000000222, 0.7853981633974507215 ) ;
#128 = APPROVAL_DATE_TIME ( #52, #153 ) ;
#129 = PERSON_AND_ORGANIZATION_ROLE ( 'creator' ) ;
#130 = CARTESIAN_POINT ( 'NONE',  ( 0.0000000000000000000, 0.0000000000000000000, 0.0000000000000000000 ) ) ;
#131 = ADVANCED_FACE ( 'NONE', ( #29, #78 ), #127, .T. ) ;
#132 = AXIS2_PLACEMENT_3D ( 'NONE', #184, #201, #183 ) ;
#133 = PERSON_AND_ORGANIZATION_ROLE ( 'design_owner' ) ;
#134 = FACE_OUTER_BOUND ( 'NONE', #22, .T. ) ;
#135 = EDGE_LOOP ( 'NONE', ( #5 ) ) ;
#136 = EDGE_LOOP ( 'NONE', ( #120 ) ) ;
#137 = DIRECTION ( 'NONE',  ( 3.491481338843133355E-15, -1.224646799147353207E-16, 1.000000000000000000 ) ) ;
#138 = CONICAL_SURFACE ( 'NONE', #132, 0.3099999999999987765, 1.029744258676649649 ) ;
#139 = ADVANCED_FACE ( 'NONE', ( #95, #169 ), #44, .T. ) ;
#140 = LOCAL_TIME ( 15, 47, 54.00000000000000000, #20 ) ;
#141 = DIRECTION ( 'NONE',  ( -4.275831445896958607E-31, -1.000000000000000000, -1.224646799147353207E-16 ) ) ;
#142 = MECHANICAL_CONTEXT ( 'NONE', #46, 'mechanical' ) ;
#143 = CALENDAR_DATE ( 2021, 7, 10 ) ;
#144 = APPROVAL_ROLE ( '' ) ;
#145 = COORDINATED_UNIVERSAL_TIME_OFFSET ( 1, 0, .AHEAD. ) ;
#146 = AXIS2_PLACEMENT_3D ( 'NONE', #130, #26, #48 ) ;
#147 = DIRECTION ( 'NONE',  ( -3.491481338843133355E-15, 1.224646799147353207E-16, -1.000000000000000000 ) ) ;
#148 = CARTESIAN_POINT ( 'NONE',  ( 1.993317998676153055E-14, -6.991618370128238313E-16, 5.709089653438097933 ) ) ;
#149 = DIRECTION ( 'NONE',  ( -3.491481338843133355E-15, 1.224646799147353207E-16, -1.000000000000000000 ) ) ;
#150 = DIRECTION ( 'NONE',  ( 0.0000000000000000000, 1.000000000000000000, 0.0000000000000000000 ) ) ;
#151 = AXIS2_PLACEMENT_3D ( 'NONE', #122, #31, #158 ) ;
#152 = AXIS2_PLACEMENT_3D ( 'NONE', #7, #147, #215 ) ;
#153 = APPROVAL ( #81, 'UNSPECIFIED' ) ;
#154 = DATE_AND_TIME ( #118, #181 ) ;
#155 = EDGE_LOOP ( 'NONE', ( #100 ) ) ;
#156 = APPLICATION_PROTOCOL_DEFINITION ( 'international standard', 'config_control_design', 1994, #46 ) ;
#157 = DIRECTION ( 'NONE',  ( -3.491481338843133355E-15, 1.224646799147353207E-16, -1.000000000000000000 ) ) ;
#158 = DIRECTION ( 'NONE',  ( 4.275831445896959482E-31, 1.000000000000000000, 1.224646799147353207E-16 ) ) ;
#159 = ORIENTED_EDGE ( 'NONE', *, *, #62, .F. ) ;
#160 = PLANE ( 'NONE',  #28 ) ;
#161 = FACE_OUTER_BOUND ( 'NONE', #84, .T. ) ;
#162 = CIRCLE ( 'NONE', #92, 0.3099999999999987765 ) ;
#163 =( NAMED_UNIT ( * ) SI_UNIT ( $, .STERADIAN. ) SOLID_ANGLE_UNIT ( ) );
#164 = CC_DESIGN_DATE_AND_TIME_ASSIGNMENT ( #97, #195, ( #9 ) ) ;
#165 = AXIS2_PLACEMENT_3D ( 'NONE', #197, #137, #55 ) ;
#166 = DIRECTION ( 'NONE',  ( 4.275831445896959482E-31, 1.000000000000000000, 1.224646799147353207E-16 ) ) ;
#167 = SHAPE_DEFINITION_REPRESENTATION ( #11, #30 ) ;
#168 = PERSON_AND_ORGANIZATION ( #176, #67 ) ;
#169 = FACE_OUTER_BOUND ( 'NONE', #177, .T. ) ;
#170 = CARTESIAN_POINT ( 'NONE',  ( 1.745740669421566678E-14, 2.324627663125867181E-33, 5.000000000000000000 ) ) ;
#171 = CC_DESIGN_APPROVAL ( #153, ( #32 ) ) ;
#172 = APPROVAL_STATUS ( 'not_yet_approved' ) ;
#173 = SECURITY_CLASSIFICATION_LEVEL ( 'unclassified' ) ;
#174 = ORIENTED_EDGE ( 'NONE', *, *, #88, .T. ) ;
#175 = DATE_AND_TIME ( #54, #76 ) ;
#176 = PERSON ( 'UNSPECIFIED', 'UNSPECIFIED', 'UNSPECIFIED', ('UNSPECIFIED'), ('UNSPECIFIED'), ('UNSPECIFIED') ) ;
#177 = EDGE_LOOP ( 'NONE', ( #73 ) ) ;
#178 = LOCAL_TIME ( 15, 47, 54.00000000000000000, #145 ) ;
#179 = ORIENTED_EDGE ( 'NONE', *, *, #88, .F. ) ;
#180 = DIRECTION ( 'NONE',  ( -3.491481338843133355E-15, 1.224646799147353207E-16, -1.000000000000000000 ) ) ;
#181 = LOCAL_TIME ( 15, 47, 54.00000000000000000, #4 ) ;
#182 = DIRECTION ( 'NONE',  ( 0.0000000000000000000, 1.000000000000000000, 0.0000000000000000000 ) ) ;
#183 = DIRECTION ( 'NONE',  ( -3.106338619979425097E-31, -1.000000000000000000, -8.743565907141199780E-17 ) ) ;
#184 = CARTESIAN_POINT ( 'NONE',  ( 6.503470279599472734E-16, -2.281110304859993039E-17, 0.1862667918985450033 ) ) ;
#185 = FACE_OUTER_BOUND ( 'NONE', #136, .T. ) ;
#186 = APPROVAL_DATE_TIME ( #154, #36 ) ;
#187 = CARTESIAN_POINT ( 'NONE',  ( 1.047444401652940007E-13, 2.999519565323660135E-33, 30.00000000000000000 ) ) ;
#188 = PERSON_AND_ORGANIZATION ( #176, #67 ) ;
#189 = EDGE_CURVE ( 'NONE', #14, #14, #207, .T. ) ;
#190 = PERSON_AND_ORGANIZATION_ROLE ( 'design_supplier' ) ;
#191 = DIRECTION ( 'NONE',  ( 3.491481338843133355E-15, -1.224646799147353207E-16, 1.000000000000000000 ) ) ;
#192 = CLOSED_SHELL ( 'NONE', ( #119, #77, #71, #131, #96 ) ) ;
#193 = DATE_TIME_ROLE ( 'creation_date' ) ;
#194 = ORIENTED_EDGE ( 'NONE', *, *, #75, .F. ) ;
#195 = DATE_TIME_ROLE ( 'classification_date' ) ;
#196 = DIRECTION ( 'NONE',  ( 0.0000000000000000000, 1.000000000000000000, 0.0000000000000000000 ) ) ;
#197 = CARTESIAN_POINT ( 'NONE',  ( 1.745740669421566678E-14, 2.324627663125867181E-33, 5.000000000000000000 ) ) ;
#198 = FACE_OUTER_BOUND ( 'NONE', #68, .T. ) ;
#199 = AXIS2_PLACEMENT_3D ( 'NONE', #170, #191, #141 ) ;
#200 = CIRCLE ( 'NONE', #152, 0.3099999999999995537 ) ;
#201 = DIRECTION ( 'NONE',  ( 3.491481338843133355E-15, -1.224646799147353207E-16, 1.000000000000000000 ) ) ;
#202 = CARTESIAN_POINT ( 'NONE',  ( 6.503470279599472734E-16, -2.281110304859993039E-17, 0.1862667918985450033 ) ) ;
#203 = CARTESIAN_POINT ( 'NONE',  ( 6.503470279599473720E-16, 0.3099999999999987765, 0.1862667918985450310 ) ) ;
#204 = AXIS2_PLACEMENT_3D ( 'NONE', #205, #113, #196 ) ;
#205 = CARTESIAN_POINT ( 'NONE',  ( 1.047444401652940007E-13, -3.673940397442059178E-15, 30.00000000000000000 ) ) ;
#206 = COORDINATED_UNIVERSAL_TIME_OFFSET ( 1, 0, .AHEAD. ) ;
#207 = CIRCLE ( 'NONE', #17, 0.3099999999999995537 ) ;
#208 = APPLICATION_PROTOCOL_DEFINITION ( 'international standard', 'config_control_design', 1994, #38 ) ;
#209 = ORIENTED_EDGE ( 'NONE', *, *, #189, .F. ) ;
#210 = CC_DESIGN_PERSON_AND_ORGANIZATION_ASSIGNMENT ( #23, #114, ( #9 ) ) ;
#211 = PERSON_AND_ORGANIZATION ( #176, #67 ) ;
#212 = CLOSED_SHELL ( 'NONE', ( #222, #139, #8 ) ) ;
#213 = EDGE_LOOP ( 'NONE', ( #209 ) ) ;
#214 = PLANE ( 'NONE',  #165 ) ;
#215 = DIRECTION ( 'NONE',  ( 0.0000000000000000000, 1.000000000000000000, 0.0000000000000000000 ) ) ;
#216 = ORIENTED_EDGE ( 'NONE', *, *, #101, .F. ) ;
#217 = FACE_OUTER_BOUND ( 'NONE', #155, .T. ) ;
#218 = APPROVAL ( #172, 'UNSPECIFIED' ) ;
#219 = AXIS2_PLACEMENT_3D ( 'NONE', #148, #123, #10 ) ;
#220 = PRODUCT ( '38364', '38364', '', ( #142 ) ) ;
#221 = APPROVAL_PERSON_ORGANIZATION ( #66, #153, #82 ) ;
#222 = ADVANCED_FACE ( 'NONE', ( #161 ), #138, .T. ) ;
#223 = VERTEX_POINT ( 'NONE', #203 ) ;
ENDSEC;
END-ISO-10303-21;
