ISO-10303-21;
HEADER;
FILE_DESCRIPTION (( 'STEP AP203' ),
    '1' );
FILE_NAME ('383396.step',
    '2021-12-13T13:56:09',
    ( '' ),
    ( '' ),
    'SwSTEP 2.0',
    'SolidWorks 2019',
    '' );
FILE_SCHEMA (( 'CONFIG_CONTROL_DESIGN' ));
ENDSEC;

DATA;
#1 = AXIS2_PLACEMENT_3D ( 'NONE', #22, #238, #124 ) ;
#2 = PLANE ( 'NONE',  #9 ) ;
#3 = CARTESIAN_POINT ( 'NONE',  ( 6.494155290248229303E-14, 5.961545136080877696E-32, 18.60000000000000142 ) ) ;
#4 = CARTESIAN_POINT ( 'NONE',  ( -6.413825538198597757E-31, 2.249667162261570954E-32, -1.836992644595875990E-16 ) ) ;
#5 = PRODUCT_DEFINITION ( 'UNKNOWN', '', #294, #331 ) ;
#6 = CARTESIAN_POINT ( 'NONE',  ( 3.491481338843133355E-14, 2.499999999999999556, 10.00000000000000000 ) ) ;
#7 = APPROVAL_ROLE ( '' ) ;
#8 = EDGE_LOOP ( 'NONE', ( #260 ) ) ;
#9 = AXIS2_PLACEMENT_3D ( 'NONE', #92, #225, #55 ) ;
#10 =( NAMED_UNIT ( * ) PLANE_ANGLE_UNIT ( ) SI_UNIT ( $, .RADIAN. ) );
#11 = ORIENTED_EDGE ( 'NONE', *, *, #178, .F. ) ;
#12 = DIRECTION ( 'NONE',  ( 3.491481338843133355E-15, -1.224646799147353207E-16, 1.000000000000000000 ) ) ;
#13 = CIRCLE ( 'NONE', #138, 2.500000000000000444 ) ;
#14 = CALENDAR_DATE ( 2021, 13, 12 ) ;
#15 = DIRECTION ( 'NONE',  ( 4.275831445896958607E-31, 1.000000000000000000, 1.224646799147353207E-16 ) ) ;
#16 = EDGE_CURVE ( 'NONE', #278, #278, #45, .T. ) ;
#17 = AXIS2_PLACEMENT_3D ( 'NONE', #246, #220, #298 ) ;
#18 = ORIENTED_EDGE ( 'NONE', *, *, #223, .F. ) ;
#19 = FACE_OUTER_BOUND ( 'NONE', #91, .T. ) ;
#20 = PERSON_AND_ORGANIZATION ( #234, #176 ) ;
#21 = EDGE_LOOP ( 'NONE', ( #53 ) ) ;
#22 = CARTESIAN_POINT ( 'NONE',  ( 5.097191119013072468E-14, -1.787853974499541244E-15, 14.59893559305682764 ) ) ;
#23 = DIRECTION ( 'NONE',  ( -3.491481338843133355E-15, 1.224646799147353207E-16, -1.000000000000000000 ) ) ;
#24 = CIRCLE ( 'NONE', #235, 2.499999999999999556 ) ;
#25 = ADVANCED_BREP_SHAPE_REPRESENTATION ( '383396', ( #148, #271, #36 ), #307 ) ;
#26 = ORIENTED_EDGE ( 'NONE', *, *, #284, .T. ) ;
#27 = DIRECTION ( 'NONE',  ( -4.275831445896958607E-31, -1.000000000000000000, -1.224646799147353207E-16 ) ) ;
#28 = ORIENTED_EDGE ( 'NONE', *, *, #125, .T. ) ;
#29 = FACE_OUTER_BOUND ( 'NONE', #175, .T. ) ;
#30 = DIRECTION ( 'NONE',  ( 0.0000000000000000000, 1.000000000000000000, 0.0000000000000000000 ) ) ;
#31 = CIRCLE ( 'NONE', #239, 2.582852747271954019 ) ;
#32 = VERTEX_POINT ( 'NONE', #249 ) ;
#33 = FACE_OUTER_BOUND ( 'NONE', #49, .T. ) ;
#34 = CARTESIAN_POINT ( 'NONE',  ( 6.494155290248229303E-14, 3.949999999999998845, 18.60000000000000142 ) ) ;
#35 =( LENGTH_UNIT ( ) NAMED_UNIT ( * ) SI_UNIT ( .MILLI., .METRE. ) );
#36 = AXIS2_PLACEMENT_3D ( 'NONE', #137, #136, #279 ) ;
#37 = ADVANCED_FACE ( 'NONE', ( #66, #283 ), #299, .F. ) ;
#38 = ADVANCED_FACE ( 'NONE', ( #33 ), #134, .T. ) ;
#39 = FACE_BOUND ( 'NONE', #108, .T. ) ;
#40 = APPROVAL_ROLE ( '' ) ;
#41 = COORDINATED_UNIVERSAL_TIME_OFFSET ( 1, 0, .AHEAD. ) ;
#42 = DIRECTION ( 'NONE',  ( -3.491481338843133355E-15, 1.224646799147353207E-16, -1.000000000000000000 ) ) ;
#43 = DIRECTION ( 'NONE',  ( -3.491481338843133355E-15, 1.224646799147353207E-16, -1.000000000000000000 ) ) ;
#44 = UNCERTAINTY_MEASURE_WITH_UNIT (LENGTH_MEASURE( 1.000000000000000082E-05 ), #35, 'distance_accuracy_value', 'NONE');
#45 = CIRCLE ( 'NONE', #281, 2.543704798532386846 ) ;
#46 = DIRECTION ( 'NONE',  ( -3.491481338843133355E-15, 1.224646799147353207E-16, -1.000000000000000000 ) ) ;
#47 = CARTESIAN_POINT ( 'NONE',  ( 0.0000000000000000000, 0.0000000000000000000, 0.0000000000000000000 ) ) ;
#48 = PERSON_AND_ORGANIZATION ( #234, #176 ) ;
#49 = EDGE_LOOP ( 'NONE', ( #18 ) ) ;
#50 = FACE_OUTER_BOUND ( 'NONE', #95, .T. ) ;
#51 = LOCAL_TIME ( 14, 56, 9.000000000000000000, #205 ) ;
#52 = FACE_BOUND ( 'NONE', #237, .T. ) ;
#53 = ORIENTED_EDGE ( 'NONE', *, *, #142, .F. ) ;
#54 = CYLINDRICAL_SURFACE ( 'NONE', #89, 2.500000000000000000 ) ;
#55 = DIRECTION ( 'NONE',  ( -4.275831445896958607E-31, -1.000000000000000000, -1.224646799147353207E-16 ) ) ;
#56 = FACE_OUTER_BOUND ( 'NONE', #332, .T. ) ;
#57 = PERSON_AND_ORGANIZATION ( #234, #176 ) ;
#58 = CONICAL_SURFACE ( 'NONE', #334, 3.200000000000001066, 0.7853981633974512766 ) ;
#59 = DIRECTION ( 'NONE',  ( 3.491481338843133355E-15, -1.224646799147353207E-16, 1.000000000000000000 ) ) ;
#60 = VERTEX_POINT ( 'NONE', #135 ) ;
#61 = MECHANICAL_CONTEXT ( 'NONE', #209, 'mechanical' ) ;
#62 = CARTESIAN_POINT ( 'NONE',  ( 5.097191119013072468E-14, 3.949999999999998845, 14.59893559305682764 ) ) ;
#63 = EDGE_CURVE ( 'NONE', #64, #64, #300, .T. ) ;
#64 = VERTEX_POINT ( 'NONE', #6 ) ;
#65 = CIRCLE ( 'NONE', #144, 3.200000000000001066 ) ;
#66 = FACE_BOUND ( 'NONE', #21, .T. ) ;
#67 = PERSON_AND_ORGANIZATION ( #234, #176 ) ;
#68 = APPROVAL ( #168, 'UNSPECIFIED' ) ;
#69 = CARTESIAN_POINT ( 'NONE',  ( 5.097191119013072468E-14, -1.787853974499541244E-15, 14.59893559305682764 ) ) ;
#70 = CLOSED_SHELL ( 'NONE', ( #267, #172, #71, #322, #118, #208, #184, #37, #196, #339, #201 ) ) ;
#71 = ADVANCED_FACE ( 'NONE', ( #146, #232 ), #218, .F. ) ;
#72 = AXIS2_PLACEMENT_3D ( 'NONE', #109, #23, #288 ) ;
#73 = EDGE_LOOP ( 'NONE', ( #123 ) ) ;
#74 = CLOSED_SHELL ( 'NONE', ( #328, #151, #38 ) ) ;
#75 = DIRECTION ( 'NONE',  ( 0.0000000000000000000, 1.000000000000000000, 0.0000000000000000000 ) ) ;
#76 = COORDINATED_UNIVERSAL_TIME_OFFSET ( 1, 0, .AHEAD. ) ;
#77 = EDGE_LOOP ( 'NONE', ( #149 ) ) ;
#78 = CYLINDRICAL_SURFACE ( 'NONE', #330, 3.999999999999998224 ) ;
#79 = SHAPE_DEFINITION_REPRESENTATION ( #231, #25 ) ;
#80 = EDGE_CURVE ( 'NONE', #165, #165, #245, .T. ) ;
#81 = DIRECTION ( 'NONE',  ( 0.0000000000000000000, 1.000000000000000000, 0.0000000000000000000 ) ) ;
#82 = FACE_OUTER_BOUND ( 'NONE', #94, .T. ) ;
#83 = FACE_OUTER_BOUND ( 'NONE', #8, .T. ) ;
#84 = FACE_BOUND ( 'NONE', #167, .T. ) ;
#85 = PERSON_AND_ORGANIZATION_ROLE ( 'design_owner' ) ;
#86 = APPROVAL_PERSON_ORGANIZATION ( #57, #340, #7 ) ;
#87 = VERTEX_POINT ( 'NONE', #90 ) ;
#88 = CC_DESIGN_APPROVAL ( #204, ( #195 ) ) ;
#89 = AXIS2_PLACEMENT_3D ( 'NONE', #189, #338, #297 ) ;
#90 = CARTESIAN_POINT ( 'NONE',  ( 2.618611004132350016E-14, 2.499999999999999556, 7.500000000000000000 ) ) ;
#91 = EDGE_LOOP ( 'NONE', ( #341 ) ) ;
#92 = CARTESIAN_POINT ( 'NONE',  ( -3.206912769099298878E-31, 1.124833581130785477E-32, -9.184963222979379948E-17 ) ) ;
#93 = DATE_AND_TIME ( #323, #255 ) ;
#94 = EDGE_LOOP ( 'NONE', ( #207 ) ) ;
#95 = EDGE_LOOP ( 'NONE', ( #311 ) ) ;
#96 = PERSON_AND_ORGANIZATION_ROLE ( 'creator' ) ;
#97 = DIRECTION ( 'NONE',  ( -4.275831445896958607E-31, -1.000000000000000000, -1.224646799147353207E-16 ) ) ;
#98 = CC_DESIGN_PERSON_AND_ORGANIZATION_ASSIGNMENT ( #247, #85, ( #265 ) ) ;
#99 = PERSON_AND_ORGANIZATION ( #234, #176 ) ;
#100 = AXIS2_PLACEMENT_3D ( 'NONE', #203, #43, #306 ) ;
#101 = ORIENTED_EDGE ( 'NONE', *, *, #186, .T. ) ;
#102 = CARTESIAN_POINT ( 'NONE',  ( 0.0000000000000000000, 0.0000000000000000000, 0.0000000000000000000 ) ) ;
#103 = SECURITY_CLASSIFICATION_LEVEL ( 'unclassified' ) ;
#104 = APPROVAL_PERSON_ORGANIZATION ( #67, #68, #40 ) ;
#105 = FACE_OUTER_BOUND ( 'NONE', #296, .T. ) ;
#106 = PERSON_AND_ORGANIZATION_ROLE ( 'classification_officer' ) ;
#107 = CC_DESIGN_PERSON_AND_ORGANIZATION_ASSIGNMENT ( #242, #106, ( #195 ) ) ;
#108 = EDGE_LOOP ( 'NONE', ( #179 ) ) ;
#109 = CARTESIAN_POINT ( 'NONE',  ( 3.700970219173721357E-14, -1.298125607096194385E-15, 10.59999999999999964 ) ) ;
#110 = ORIENTED_EDGE ( 'NONE', *, *, #63, .T. ) ;
#111 = DIRECTION ( 'NONE',  ( 3.491481338843133355E-15, -1.224646799147353207E-16, 1.000000000000000000 ) ) ;
#112 = CARTESIAN_POINT ( 'NONE',  ( 2.618611004132350016E-14, -9.184850993605147944E-16, 7.500000000000000000 ) ) ;
#113 = VERTEX_POINT ( 'NONE', #198 ) ;
#114 = CARTESIAN_POINT ( 'NONE',  ( 2.206616206148860281E-13, 3.999999999999993339, 63.20000000000000284 ) ) ;
#115 = VERTEX_POINT ( 'NONE', #251 ) ;
#116 = ORIENTED_EDGE ( 'NONE', *, *, #142, .T. ) ;
#117 = PLANE ( 'NONE',  #17 ) ;
#118 = ADVANCED_FACE ( 'NONE', ( #241, #50 ), #342, .F. ) ;
#119 = CIRCLE ( 'NONE', #295, 2.500000000000000444 ) ;
#120 = PERSON_AND_ORGANIZATION_ROLE ( 'creator' ) ;
#121 = EDGE_CURVE ( 'NONE', #133, #133, #65, .T. ) ;
#122 = CARTESIAN_POINT ( 'NONE',  ( 3.700970219173721357E-14, 4.261457000573961480E-32, 10.59999999999999964 ) ) ;
#123 = ORIENTED_EDGE ( 'NONE', *, *, #125, .F. ) ;
#124 = DIRECTION ( 'NONE',  ( 0.0000000000000000000, -1.000000000000000000, 0.0000000000000000000 ) ) ;
#125 = EDGE_CURVE ( 'NONE', #113, #113, #31, .T. ) ;
#126 = ORIENTED_EDGE ( 'NONE', *, *, #284, .F. ) ;
#127 = CARTESIAN_POINT ( 'NONE',  ( 0.0000000000000000000, 0.0000000000000000000, 0.0000000000000000000 ) ) ;
#128 = CARTESIAN_POINT ( 'NONE',  ( 3.700970219173721357E-14, -1.298125607096194385E-15, 10.59999999999999964 ) ) ;
#129 = EDGE_LOOP ( 'NONE', ( #173 ) ) ;
#130 = DIRECTION ( 'NONE',  ( 4.275831445896958607E-31, 1.000000000000000000, 1.224646799147353207E-16 ) ) ;
#131 = CARTESIAN_POINT ( 'NONE',  ( 2.234548056859605347E-13, 3.199999999999993072, 64.00000000000000000 ) ) ;
#132 = AXIS2_PLACEMENT_3D ( 'NONE', #292, #266, #302 ) ;
#133 = VERTEX_POINT ( 'NONE', #131 ) ;
#134 = PLANE ( 'NONE',  #206 ) ;
#135 = CARTESIAN_POINT ( 'NONE',  ( 6.494155290248229303E-14, 3.999999999999993339, 18.60000000000000142 ) ) ;
#136 = DIRECTION ( 'NONE',  ( 0.0000000000000000000, 0.0000000000000000000, 1.000000000000000000 ) ) ;
#137 = CARTESIAN_POINT ( 'NONE',  ( 0.0000000000000000000, 0.0000000000000000000, 0.0000000000000000000 ) ) ;
#138 = AXIS2_PLACEMENT_3D ( 'NONE', #155, #312, #183 ) ;
#139 = ORIENTED_EDGE ( 'NONE', *, *, #258, .T. ) ;
#140 = CARTESIAN_POINT ( 'NONE',  ( 3.700970219173721357E-14, -1.298125607096194385E-15, 10.59999999999999964 ) ) ;
#141 = DIRECTION ( 'NONE',  ( -3.491481338843133355E-15, 1.224646799147353207E-16, -1.000000000000000000 ) ) ;
#142 = EDGE_CURVE ( 'NONE', #275, #275, #337, .T. ) ;
#143 = EDGE_LOOP ( 'NONE', ( #188 ) ) ;
#144 = AXIS2_PLACEMENT_3D ( 'NONE', #309, #316, #81 ) ;
#145 = APPROVAL_DATE_TIME ( #327, #68 ) ;
#146 = FACE_OUTER_BOUND ( 'NONE', #143, .T. ) ;
#147 = DATE_AND_TIME ( #315, #280 ) ;
#148 = MANIFOLD_SOLID_BREP ( 'Corps-Déplacer/Copier1[1]', #70 ) ;
#149 = ORIENTED_EDGE ( 'NONE', *, *, #63, .F. ) ;
#150 = CYLINDRICAL_SURFACE ( 'NONE', #321, 2.500000000000000444 ) ;
#151 = ADVANCED_FACE ( 'NONE', ( #240, #82 ), #54, .T. ) ;
#152 = DIRECTION ( 'NONE',  ( -3.491481338843133355E-15, 1.224646799147353207E-16, -1.000000000000000000 ) ) ;
#153 = DIRECTION ( 'NONE',  ( 0.0000000000000000000, 1.000000000000000000, 0.0000000000000000000 ) ) ;
#154 = DATE_TIME_ROLE ( 'classification_date' ) ;
#155 = CARTESIAN_POINT ( 'NONE',  ( 2.618611004132350016E-14, -9.184850993605147944E-16, 7.500000000000000000 ) ) ;
#156 = EDGE_LOOP ( 'NONE', ( #28 ) ) ;
#157 = DIRECTION ( 'NONE',  ( -3.491481338843133355E-15, 1.224646799147353207E-16, -1.000000000000000000 ) ) ;
#158 = FACE_OUTER_BOUND ( 'NONE', #156, .T. ) ;
#159 = AXIS2_PLACEMENT_3D ( 'NONE', #214, #152, #153 ) ;
#160 = CARTESIAN_POINT ( 'NONE',  ( 2.234548056859605347E-13, -7.837739514543060526E-15, 64.00000000000000000 ) ) ;
#161 = CC_DESIGN_APPROVAL ( #68, ( #294 ) ) ;
#162 = APPROVAL_STATUS ( 'not_yet_approved' ) ;
#163 = DIRECTION ( 'NONE',  ( -4.275831445896958607E-31, -1.000000000000000000, -1.224646799147353207E-16 ) ) ;
#164 = CARTESIAN_POINT ( 'NONE',  ( 2.618611004132350016E-14, 2.499999999999999556, 7.500000000000000000 ) ) ;
#165 = VERTEX_POINT ( 'NONE', #62 ) ;
#166 = DATE_AND_TIME ( #226, #51 ) ;
#167 = EDGE_LOOP ( 'NONE', ( #335 ) ) ;
#168 = APPROVAL_STATUS ( 'not_yet_approved' ) ;
#169 = CC_DESIGN_SECURITY_CLASSIFICATION ( #195, ( #294 ) ) ;
#170 = CIRCLE ( 'NONE', #132, 3.999999999999995559 ) ;
#171 = COORDINATED_UNIVERSAL_TIME_OFFSET ( 1, 0, .AHEAD. ) ;
#172 = ADVANCED_FACE ( 'NONE', ( #83, #236 ), #150, .T. ) ;
#173 = ORIENTED_EDGE ( 'NONE', *, *, #258, .F. ) ;
#174 = APPROVAL_DATE_TIME ( #147, #204 ) ;
#175 = EDGE_LOOP ( 'NONE', ( #276 ) ) ;
#176 = ORGANIZATION ( 'UNSPECIFIED', 'UNSPECIFIED', '' ) ;
#177 = CONICAL_SURFACE ( 'NONE', #308, 2.582852747271954019, 0.2094395102393110941 ) ;
#178 = EDGE_CURVE ( 'NONE', #32, #32, #268, .T. ) ;
#179 = ORIENTED_EDGE ( 'NONE', *, *, #16, .F. ) ;
#180 = DIRECTION ( 'NONE',  ( 4.275831445896958607E-31, 1.000000000000000000, 1.224646799147353207E-16 ) ) ;
#181 = CALENDAR_DATE ( 2021, 13, 12 ) ;
#182 = EDGE_LOOP ( 'NONE', ( #110 ) ) ;
#183 = DIRECTION ( 'NONE',  ( 0.0000000000000000000, 1.000000000000000000, 0.0000000000000000000 ) ) ;
#184 = ADVANCED_FACE ( 'NONE', ( #29, #105 ), #291, .T. ) ;
#185 = DIRECTION ( 'NONE',  ( 4.275831445896958607E-31, 1.000000000000000000, 1.224646799147353207E-16 ) ) ;
#186 = EDGE_CURVE ( 'NONE', #200, #200, #325, .T. ) ;
#187 = AXIS2_PLACEMENT_3D ( 'NONE', #263, #46, #343 ) ;
#188 = ORIENTED_EDGE ( 'NONE', *, *, #16, .T. ) ;
#189 = CARTESIAN_POINT ( 'NONE',  ( 0.0000000000000000000, 0.0000000000000000000, 0.0000000000000000000 ) ) ;
#190 = DIRECTION ( 'NONE',  ( -3.491481338843133355E-15, 1.224646799147353207E-16, -1.000000000000000000 ) ) ;
#191 =( NAMED_UNIT ( * ) SI_UNIT ( $, .STERADIAN. ) SOLID_ANGLE_UNIT ( ) );
#192 = FACE_OUTER_BOUND ( 'NONE', #215, .T. ) ;
#193 = APPLICATION_PROTOCOL_DEFINITION ( 'international standard', 'config_control_design', 1994, #326 ) ;
#194 = DIRECTION ( 'NONE',  ( 0.0000000000000000000, 1.000000000000000000, 0.0000000000000000000 ) ) ;
#195 = SECURITY_CLASSIFICATION ( '', '', #103 ) ;
#196 = ADVANCED_FACE ( 'NONE', ( #314, #261 ), #78, .T. ) ;
#197 = AXIS2_PLACEMENT_3D ( 'NONE', #219, #333, #75 ) ;
#198 = CARTESIAN_POINT ( 'NONE',  ( 3.700970219173721357E-14, 2.582852747271952687, 10.59999999999999964 ) ) ;
#199 = CARTESIAN_POINT ( 'NONE',  ( 3.636665296566634730E-14, 2.543704798532385514, 10.41582338163550503 ) ) ;
#200 = VERTEX_POINT ( 'NONE', #114 ) ;
#201 = ADVANCED_FACE ( 'NONE', ( #318 ), #293, .F. ) ;
#202 = EDGE_LOOP ( 'NONE', ( #305 ) ) ;
#203 = CARTESIAN_POINT ( 'NONE',  ( 3.491481338843133355E-14, -1.224646799147353256E-15, 10.00000000000000000 ) ) ;
#204 = APPROVAL ( #264, 'UNSPECIFIED' ) ;
#205 = COORDINATED_UNIVERSAL_TIME_OFFSET ( 1, 0, .AHEAD. ) ;
#206 = AXIS2_PLACEMENT_3D ( 'NONE', #250, #230, #97 ) ;
#207 = ORIENTED_EDGE ( 'NONE', *, *, #223, .T. ) ;
#208 = ADVANCED_FACE ( 'NONE', ( #52, #19 ), #317, .T. ) ;
#209 = APPLICATION_CONTEXT ( 'configuration controlled 3d designs of mechanical parts and assemblies' ) ;
#210 = DIRECTION ( 'NONE',  ( 0.0000000000000000000, 1.000000000000000000, 0.0000000000000000000 ) ) ;
#211 = APPROVAL_PERSON_ORGANIZATION ( #48, #204, #213 ) ;
#212 = DIRECTION ( 'NONE',  ( 0.0000000000000000000, 1.000000000000000000, 0.0000000000000000000 ) ) ;
#213 = APPROVAL_ROLE ( '' ) ;
#214 = CARTESIAN_POINT ( 'NONE',  ( 2.206616206148860281E-13, -7.739767770611272092E-15, 63.20000000000000284 ) ) ;
#215 = EDGE_LOOP ( 'NONE', ( #227 ) ) ;
#216 = DIRECTION ( 'NONE',  ( 0.0000000000000000000, 1.000000000000000000, 0.0000000000000000000 ) ) ;
#217 = DATE_AND_TIME ( #181, #244 ) ;
#218 = TOROIDAL_SURFACE ( 'NONE', #290, 4.500000000000000888, 2.000000000000000000 ) ;
#219 = CARTESIAN_POINT ( 'NONE',  ( 6.494155290248229303E-14, -2.277843046414077148E-15, 18.60000000000000142 ) ) ;
#220 = DIRECTION ( 'NONE',  ( 3.491481338843133355E-15, -1.224646799147353207E-16, 1.000000000000000000 ) ) ;
#221 = VERTEX_POINT ( 'NONE', #164 ) ;
#222 = AXIS2_PLACEMENT_3D ( 'NONE', #127, #270, #130 ) ;
#223 = EDGE_CURVE ( 'NONE', #221, #221, #119, .T. ) ;
#224 = CC_DESIGN_DATE_AND_TIME_ASSIGNMENT ( #217, #154, ( #195 ) ) ;
#225 = DIRECTION ( 'NONE',  ( 3.491481338843133355E-15, -1.224646799147353207E-16, 1.000000000000000000 ) ) ;
#226 = CALENDAR_DATE ( 2021, 13, 12 ) ;
#227 = ORIENTED_EDGE ( 'NONE', *, *, #229, .T. ) ;
#228 = AXIS2_PLACEMENT_3D ( 'NONE', #69, #329, #210 ) ;
#229 = EDGE_CURVE ( 'NONE', #87, #87, #13, .T. ) ;
#230 = DIRECTION ( 'NONE',  ( 3.491481338843133355E-15, -1.224646799147353207E-16, 1.000000000000000000 ) ) ;
#231 = PRODUCT_DEFINITION_SHAPE ( 'NONE', 'NONE',  #5 ) ;
#232 = FACE_OUTER_BOUND ( 'NONE', #77, .T. ) ;
#233 = CC_DESIGN_PERSON_AND_ORGANIZATION_ASSIGNMENT ( #20, #289, ( #294 ) ) ;
#234 = PERSON ( 'UNSPECIFIED', 'UNSPECIFIED', 'UNSPECIFIED', ('UNSPECIFIED'), ('UNSPECIFIED'), ('UNSPECIFIED') ) ;
#235 = AXIS2_PLACEMENT_3D ( 'NONE', #4, #190, #277 ) ;
#236 = FACE_OUTER_BOUND ( 'NONE', #182, .T. ) ;
#237 = EDGE_LOOP ( 'NONE', ( #11 ) ) ;
#238 = DIRECTION ( 'NONE',  ( 3.491481338843133355E-15, -1.224646799147353207E-16, 1.000000000000000000 ) ) ;
#239 = AXIS2_PLACEMENT_3D ( 'NONE', #128, #157, #216 ) ;
#240 = FACE_OUTER_BOUND ( 'NONE', #262, .T. ) ;
#241 = FACE_BOUND ( 'NONE', #73, .T. ) ;
#242 = PERSON_AND_ORGANIZATION ( #234, #176 ) ;
#243 = DIRECTION ( 'NONE',  ( -3.491481338843133355E-15, 1.224646799147353207E-16, -1.000000000000000000 ) ) ;
#244 = LOCAL_TIME ( 14, 56, 9.000000000000000000, #76 ) ;
#245 = CIRCLE ( 'NONE', #228, 3.950000000000000178 ) ;
#246 = CARTESIAN_POINT ( 'NONE',  ( 2.618611004132350016E-14, 1.874699728327321189E-32, 7.500000000000000000 ) ) ;
#247 = PERSON_AND_ORGANIZATION ( #234, #176 ) ;
#248 = ORIENTED_EDGE ( 'NONE', *, *, #186, .F. ) ;
#249 = CARTESIAN_POINT ( 'NONE',  ( 3.700970219173721357E-14, 3.099999999999998757, 10.59999999999999964 ) ) ;
#250 = CARTESIAN_POINT ( 'NONE',  ( 2.618611004132350016E-14, 1.874699728327321189E-32, 7.500000000000000000 ) ) ;
#251 = CARTESIAN_POINT ( 'NONE',  ( 4.275753076543797008E-31, 2.499999999999999556, 1.224624353272506412E-16 ) ) ;
#252 = CC_DESIGN_APPROVAL ( #340, ( #5 ) ) ;
#253 = AXIS2_PLACEMENT_3D ( 'NONE', #122, #111, #27 ) ;
#254 = EDGE_LOOP ( 'NONE', ( #139 ) ) ;
#255 = LOCAL_TIME ( 14, 56, 9.000000000000000000, #171 ) ;
#256 = AXIS2_PLACEMENT_3D ( 'NONE', #3, #59, #163 ) ;
#257 = CARTESIAN_POINT ( 'NONE',  ( 3.491481338843133355E-14, -8.673617379884035472E-16, 10.00000000000000000 ) ) ;
#258 = EDGE_CURVE ( 'NONE', #60, #60, #170, .T. ) ;
#259 = CC_DESIGN_PERSON_AND_ORGANIZATION_ASSIGNMENT ( #99, #120, ( #294 ) ) ;
#260 = ORIENTED_EDGE ( 'NONE', *, *, #229, .F. ) ;
#261 = FACE_OUTER_BOUND ( 'NONE', #269, .T. ) ;
#262 = EDGE_LOOP ( 'NONE', ( #126 ) ) ;
#263 = CARTESIAN_POINT ( 'NONE',  ( 2.234548056859605347E-13, 2.399615652258961499E-32, 64.00000000000000000 ) ) ;
#264 = APPROVAL_STATUS ( 'not_yet_approved' ) ;
#265 = PRODUCT ( '383396', '383396', '', ( #61 ) ) ;
#266 = DIRECTION ( 'NONE',  ( -3.491481338843133355E-15, 1.224646799147353207E-16, -1.000000000000000000 ) ) ;
#267 = ADVANCED_FACE ( 'NONE', ( #192 ), #117, .F. ) ;
#268 = CIRCLE ( 'NONE', #72, 3.100000000000000089 ) ;
#269 = EDGE_LOOP ( 'NONE', ( #101 ) ) ;
#270 = DIRECTION ( 'NONE',  ( -3.491481338843133355E-15, 1.224646799147353207E-16, -1.000000000000000000 ) ) ;
#271 = MANIFOLD_SOLID_BREP ( 'Corps-Déplacer/Copier1[2]', #74 ) ;
#272 = DIRECTION ( 'NONE',  ( -3.491481338843133355E-15, 1.224646799147353207E-16, -1.000000000000000000 ) ) ;
#273 = APPLICATION_PROTOCOL_DEFINITION ( 'international standard', 'config_control_design', 1994, #209 ) ;
#274 = LOCAL_TIME ( 14, 56, 9.000000000000000000, #41 ) ;
#275 = VERTEX_POINT ( 'NONE', #34 ) ;
#276 = ORIENTED_EDGE ( 'NONE', *, *, #80, .F. ) ;
#277 = DIRECTION ( 'NONE',  ( 4.275831445896958607E-31, 1.000000000000000000, 1.224646799147353207E-16 ) ) ;
#278 = VERTEX_POINT ( 'NONE', #199 ) ;
#279 = DIRECTION ( 'NONE',  ( 1.000000000000000000, 0.0000000000000000000, 0.0000000000000000000 ) ) ;
#280 = LOCAL_TIME ( 14, 56, 9.000000000000000000, #313 ) ;
#281 = AXIS2_PLACEMENT_3D ( 'NONE', #320, #141, #194 ) ;
#282 = PERSON_AND_ORGANIZATION ( #234, #176 ) ;
#283 = FACE_OUTER_BOUND ( 'NONE', #254, .T. ) ;
#284 = EDGE_CURVE ( 'NONE', #115, #115, #24, .T. ) ;
#285 = APPROVAL_DATE_TIME ( #166, #340 ) ;
#286 = DATE_TIME_ROLE ( 'creation_date' ) ;
#287 = CC_DESIGN_DATE_AND_TIME_ASSIGNMENT ( #93, #286, ( #5 ) ) ;
#288 = DIRECTION ( 'NONE',  ( 0.0000000000000000000, 1.000000000000000000, 0.0000000000000000000 ) ) ;
#289 = PERSON_AND_ORGANIZATION_ROLE ( 'design_supplier' ) ;
#290 = AXIS2_PLACEMENT_3D ( 'NONE', #257, #42, #15 ) ;
#291 = CYLINDRICAL_SURFACE ( 'NONE', #222, 3.950000000000000178 ) ;
#292 = CARTESIAN_POINT ( 'NONE',  ( 6.494155290248229303E-14, -2.277843046414077148E-15, 18.60000000000000142 ) ) ;
#293 = PLANE ( 'NONE',  #187 ) ;
#294 = PRODUCT_DEFINITION_FORMATION_WITH_SPECIFIED_SOURCE ( 'ANY', '', #265, .NOT_KNOWN. ) ;
#295 = AXIS2_PLACEMENT_3D ( 'NONE', #112, #336, #212 ) ;
#296 = EDGE_LOOP ( 'NONE', ( #116 ) ) ;
#297 = DIRECTION ( 'NONE',  ( 4.275831445896958607E-31, 1.000000000000000000, 1.224646799147353207E-16 ) ) ;
#298 = DIRECTION ( 'NONE',  ( -4.275831445896958607E-31, -1.000000000000000000, -1.224646799147353207E-16 ) ) ;
#299 = PLANE ( 'NONE',  #256 ) ;
#300 = CIRCLE ( 'NONE', #100, 2.500000000000000888 ) ;
#301 = DIRECTION ( 'NONE',  ( -3.491481338843133355E-15, 1.224646799147353207E-16, -1.000000000000000000 ) ) ;
#302 = DIRECTION ( 'NONE',  ( 0.0000000000000000000, 1.000000000000000000, 0.0000000000000000000 ) ) ;
#303 = PRODUCT_RELATED_PRODUCT_CATEGORY ( 'detail', '', ( #265 ) ) ;
#304 = EDGE_LOOP ( 'NONE', ( #248 ) ) ;
#305 = ORIENTED_EDGE ( 'NONE', *, *, #121, .F. ) ;
#306 = DIRECTION ( 'NONE',  ( 0.0000000000000000000, 1.000000000000000000, 0.0000000000000000000 ) ) ;
#307 =( GEOMETRIC_REPRESENTATION_CONTEXT ( 3 ) GLOBAL_UNCERTAINTY_ASSIGNED_CONTEXT ( ( #44 ) ) GLOBAL_UNIT_ASSIGNED_CONTEXT ( ( #35, #10, #191 ) ) REPRESENTATION_CONTEXT ( 'NONE', 'WORKASPACE' ) );
#308 = AXIS2_PLACEMENT_3D ( 'NONE', #140, #12, #324 ) ;
#309 = CARTESIAN_POINT ( 'NONE',  ( 2.234548056859605347E-13, -7.837739514543060526E-15, 64.00000000000000000 ) ) ;
#310 = CC_DESIGN_PERSON_AND_ORGANIZATION_ASSIGNMENT ( #282, #96, ( #5 ) ) ;
#311 = ORIENTED_EDGE ( 'NONE', *, *, #178, .T. ) ;
#312 = DIRECTION ( 'NONE',  ( -3.491481338843133355E-15, 1.224646799147353207E-16, -1.000000000000000000 ) ) ;
#313 = COORDINATED_UNIVERSAL_TIME_OFFSET ( 1, 0, .AHEAD. ) ;
#314 = FACE_OUTER_BOUND ( 'NONE', #129, .T. ) ;
#315 = CALENDAR_DATE ( 2021, 13, 12 ) ;
#316 = DIRECTION ( 'NONE',  ( -3.491481338843133355E-15, 1.224646799147353207E-16, -1.000000000000000000 ) ) ;
#317 = CONICAL_SURFACE ( 'NONE', #1, 3.950000000000000178, 0.2094395102393124541 ) ;
#318 = FACE_OUTER_BOUND ( 'NONE', #202, .T. ) ;
#319 = FACE_OUTER_BOUND ( 'NONE', #304, .T. ) ;
#320 = CARTESIAN_POINT ( 'NONE',  ( 3.636665296566634730E-14, -1.275570476480408177E-15, 10.41582338163550503 ) ) ;
#321 = AXIS2_PLACEMENT_3D ( 'NONE', #102, #272, #180 ) ;
#322 = ADVANCED_FACE ( 'NONE', ( #39, #158 ), #177, .T. ) ;
#323 = CALENDAR_DATE ( 2021, 13, 12 ) ;
#324 = DIRECTION ( 'NONE',  ( 0.0000000000000000000, -1.000000000000000000, 0.0000000000000000000 ) ) ;
#325 = CIRCLE ( 'NONE', #159, 4.000000000000000888 ) ;
#326 = APPLICATION_CONTEXT ( 'configuration controlled 3d designs of mechanical parts and assemblies' ) ;
#327 = DATE_AND_TIME ( #14, #274 ) ;
#328 = ADVANCED_FACE ( 'NONE', ( #56 ), #2, .F. ) ;
#329 = DIRECTION ( 'NONE',  ( -3.491481338843133355E-15, 1.224646799147353207E-16, -1.000000000000000000 ) ) ;
#330 = AXIS2_PLACEMENT_3D ( 'NONE', #47, #243, #185 ) ;
#331 = DESIGN_CONTEXT ( 'detailed design', #326, 'design' ) ;
#332 = EDGE_LOOP ( 'NONE', ( #26 ) ) ;
#333 = DIRECTION ( 'NONE',  ( -3.491481338843133355E-15, 1.224646799147353207E-16, -1.000000000000000000 ) ) ;
#334 = AXIS2_PLACEMENT_3D ( 'NONE', #160, #301, #30 ) ;
#335 = ORIENTED_EDGE ( 'NONE', *, *, #121, .T. ) ;
#336 = DIRECTION ( 'NONE',  ( -3.491481338843133355E-15, 1.224646799147353207E-16, -1.000000000000000000 ) ) ;
#337 = CIRCLE ( 'NONE', #197, 3.950000000000001066 ) ;
#338 = DIRECTION ( 'NONE',  ( -3.491481338843133355E-15, 1.224646799147353207E-16, -1.000000000000000000 ) ) ;
#339 = ADVANCED_FACE ( 'NONE', ( #319, #84 ), #58, .T. ) ;
#340 = APPROVAL ( #162, 'UNSPECIFIED' ) ;
#341 = ORIENTED_EDGE ( 'NONE', *, *, #80, .T. ) ;
#342 = PLANE ( 'NONE',  #253 ) ;
#343 = DIRECTION ( 'NONE',  ( 4.275831445896958607E-31, 1.000000000000000000, 1.224646799147353207E-16 ) ) ;
ENDSEC;
END-ISO-10303-21;
