ISO-10303-21;
HEADER;
FILE_DESCRIPTION (( 'STEP AP203' ),
    '1' );
FILE_NAME ('383394.step',
    '2021-12-13T13:56:08',
    ( '' ),
    ( '' ),
    'SwSTEP 2.0',
    'SolidWorks 2019',
    '' );
FILE_SCHEMA (( 'CONFIG_CONTROL_DESIGN' ));
ENDSEC;

DATA;
#1 = CIRCLE ( 'NONE', #327, 1.500000000000000222 ) ;
#2 = DATE_AND_TIME ( #32, #294 ) ;
#3 = PERSON_AND_ORGANIZATION ( #35, #87 ) ;
#4 = AXIS2_PLACEMENT_3D ( 'NONE', #23, #156, #316 ) ;
#5 = AXIS2_PLACEMENT_3D ( 'NONE', #313, #160, #159 ) ;
#6 = PRODUCT_RELATED_PRODUCT_CATEGORY ( 'detail', '', ( #216 ) ) ;
#7 = ADVANCED_FACE ( 'NONE', ( #79 ), #105, .F. ) ;
#8 = DATE_AND_TIME ( #221, #255 ) ;
#9 = ORIENTED_EDGE ( 'NONE', *, *, #30, .T. ) ;
#10 = AXIS2_PLACEMENT_3D ( 'NONE', #24, #84, #161 ) ;
#11 = DIRECTION ( 'NONE',  ( -3.491481338843133355E-15, 1.224646799147353207E-16, -1.000000000000000000 ) ) ;
#12 = CARTESIAN_POINT ( 'NONE',  ( 1.920314736363723472E-13, 2.399999999999995914, 55.00000000000000000 ) ) ;
#13 = ORIENTED_EDGE ( 'NONE', *, *, #181, .F. ) ;
#14 = AXIS2_PLACEMENT_3D ( 'NONE', #49, #187, #52 ) ;
#15 = EDGE_LOOP ( 'NONE', ( #178 ) ) ;
#16 = EDGE_CURVE ( 'NONE', #93, #93, #335, .T. ) ;
#17 = DIRECTION ( 'NONE',  ( -3.491481338843133355E-15, 1.224646799147353207E-16, -1.000000000000000000 ) ) ;
#18 = VERTEX_POINT ( 'NONE', #103 ) ;
#19 = DIRECTION ( 'NONE',  ( 0.0000000000000000000, 1.000000000000000000, 0.0000000000000000000 ) ) ;
#20 = SECURITY_CLASSIFICATION ( '', '', #199 ) ;
#21 = DIRECTION ( 'NONE',  ( -4.275831445896958607E-31, -1.000000000000000000, -1.224646799147353207E-16 ) ) ;
#22 = ADVANCED_BREP_SHAPE_REPRESENTATION ( '383394', ( #302, #80, #276 ), #231 ) ;
#23 = CARTESIAN_POINT ( 'NONE',  ( 3.864859865809859393E-14, -1.355610356888051889E-15, 11.06939860400468589 ) ) ;
#24 = CARTESIAN_POINT ( 'NONE',  ( 1.920314736363723472E-13, -6.735557395310442615E-15, 55.00000000000000000 ) ) ;
#25 = CARTESIAN_POINT ( 'NONE',  ( 2.094888803305880013E-14, -8.673617379884035472E-16, 6.000000000000000000 ) ) ;
#26 = FACE_OUTER_BOUND ( 'NONE', #253, .T. ) ;
#27 = DIRECTION ( 'NONE',  ( 0.0000000000000000000, 1.000000000000000000, 0.0000000000000000000 ) ) ;
#28 = AXIS2_PLACEMENT_3D ( 'NONE', #323, #269, #27 ) ;
#29 = AXIS2_PLACEMENT_3D ( 'NONE', #339, #134, #317 ) ;
#30 = EDGE_CURVE ( 'NONE', #69, #69, #1, .T. ) ;
#31 = PERSON_AND_ORGANIZATION ( #35, #87 ) ;
#32 = CALENDAR_DATE ( 2021, 13, 12 ) ;
#33 = APPROVAL_DATE_TIME ( #165, #73 ) ;
#34 = EDGE_CURVE ( 'NONE', #225, #225, #114, .T. ) ;
#35 = PERSON ( 'UNSPECIFIED', 'UNSPECIFIED', 'UNSPECIFIED', ('UNSPECIFIED'), ('UNSPECIFIED'), ('UNSPECIFIED') ) ;
#36 = COORDINATED_UNIVERSAL_TIME_OFFSET ( 1, 0, .AHEAD. ) ;
#37 = ORIENTED_EDGE ( 'NONE', *, *, #309, .T. ) ;
#38 = VERTEX_POINT ( 'NONE', #41 ) ;
#39 = ORIENTED_EDGE ( 'NONE', *, *, #340, .T. ) ;
#40 = CC_DESIGN_APPROVAL ( #325, ( #326 ) ) ;
#41 = CARTESIAN_POINT ( 'NONE',  ( 2.992980944209896052E-31, 1.499999999999999556, 8.572238124009536400E-17 ) ) ;
#42 = ORIENTED_EDGE ( 'NONE', *, *, #110, .T. ) ;
#43 = DIRECTION ( 'NONE',  ( 4.275831445896959482E-31, 1.000000000000000000, 1.224646799147353207E-16 ) ) ;
#44 = EDGE_LOOP ( 'NONE', ( #305 ) ) ;
#45 = ADVANCED_FACE ( 'NONE', ( #343, #132 ), #207, .F. ) ;
#46 = EDGE_LOOP ( 'NONE', ( #332 ) ) ;
#47 = FACE_BOUND ( 'NONE', #97, .T. ) ;
#48 = FACE_OUTER_BOUND ( 'NONE', #44, .T. ) ;
#49 = CARTESIAN_POINT ( 'NONE',  ( 1.920314736363723472E-13, -6.735557395310442615E-15, 55.00000000000000000 ) ) ;
#50 = CARTESIAN_POINT ( 'NONE',  ( 4.818244247603524030E-14, 2.949999999999998845, 13.80000000000000071 ) ) ;
#51 = APPLICATION_CONTEXT ( 'configuration controlled 3d designs of mechanical parts and assemblies' ) ;
#52 = DIRECTION ( 'NONE',  ( 0.0000000000000000000, 1.000000000000000000, 0.0000000000000000000 ) ) ;
#53 = PERSON_AND_ORGANIZATION_ROLE ( 'creator' ) ;
#54 = AXIS2_PLACEMENT_3D ( 'NONE', #56, #238, #215 ) ;
#55 = AXIS2_PLACEMENT_3D ( 'NONE', #236, #106, #263 ) ;
#56 = CARTESIAN_POINT ( 'NONE',  ( 2.094888803305880013E-14, -7.347880794884119736E-16, 6.000000000000000000 ) ) ;
#57 = CARTESIAN_POINT ( 'NONE',  ( 1.920314736363723472E-13, 1.799711739194220919E-32, 55.00000000000000000 ) ) ;
#58 = FACE_OUTER_BOUND ( 'NONE', #229, .T. ) ;
#59 = EDGE_CURVE ( 'NONE', #38, #38, #81, .T. ) ;
#60 = MECHANICAL_CONTEXT ( 'NONE', #51, 'mechanical' ) ;
#61 = APPLICATION_PROTOCOL_DEFINITION ( 'international standard', 'config_control_design', 1994, #51 ) ;
#62 = CIRCLE ( 'NONE', #104, 1.543704798532387734 ) ;
#63 = DIRECTION ( 'NONE',  ( 1.000000000000000000, 0.0000000000000000000, 0.0000000000000000000 ) ) ;
#64 = CC_DESIGN_DATE_AND_TIME_ASSIGNMENT ( #67, #167, ( #326 ) ) ;
#65 = APPROVAL_STATUS ( 'not_yet_approved' ) ;
#66 = CARTESIAN_POINT ( 'NONE',  ( 0.0000000000000000000, 0.0000000000000000000, 0.0000000000000000000 ) ) ;
#67 = DATE_AND_TIME ( #200, #321 ) ;
#68 = CARTESIAN_POINT ( 'NONE',  ( 0.0000000000000000000, 0.0000000000000000000, 0.0000000000000000000 ) ) ;
#69 = VERTEX_POINT ( 'NONE', #172 ) ;
#70 = ORIENTED_EDGE ( 'NONE', *, *, #34, .F. ) ;
#71 = CARTESIAN_POINT ( 'NONE',  ( 0.0000000000000000000, 0.0000000000000000000, 0.0000000000000000000 ) ) ;
#72 = APPLICATION_CONTEXT ( 'configuration controlled 3d designs of mechanical parts and assemblies' ) ;
#73 = APPROVAL ( #65, 'UNSPECIFIED' ) ;
#74 = ADVANCED_FACE ( 'NONE', ( #136, #130 ), #193, .T. ) ;
#75 = EDGE_LOOP ( 'NONE', ( #151 ) ) ;
#76 = DIRECTION ( 'NONE',  ( -3.491481338843133355E-15, 1.224646799147353207E-16, -1.000000000000000000 ) ) ;
#77 = VERTEX_POINT ( 'NONE', #284 ) ;
#78 = DIRECTION ( 'NONE',  ( 3.491481338843133355E-15, -1.224646799147353207E-16, 1.000000000000000000 ) ) ;
#79 = FACE_OUTER_BOUND ( 'NONE', #247, .T. ) ;
#80 = MANIFOLD_SOLID_BREP ( 'Corps-Déplacer/Copier1[2]', #140 ) ;
#81 = CIRCLE ( 'NONE', #235, 1.499999999999999556 ) ;
#82 = DIRECTION ( 'NONE',  ( 4.275831445896958607E-31, 1.000000000000000000, 1.224646799147353207E-16 ) ) ;
#83 = DIRECTION ( 'NONE',  ( -4.275831445896958607E-31, -1.000000000000000000, -1.224646799147353207E-16 ) ) ;
#84 = DIRECTION ( 'NONE',  ( -3.491481338843133355E-15, 1.224646799147353207E-16, -1.000000000000000000 ) ) ;
#85 = PERSON_AND_ORGANIZATION_ROLE ( 'design_supplier' ) ;
#86 = AXIS2_PLACEMENT_3D ( 'NONE', #107, #213, #83 ) ;
#87 = ORGANIZATION ( 'UNSPECIFIED', 'UNSPECIFIED', '' ) ;
#88 = COORDINATED_UNIVERSAL_TIME_OFFSET ( 1, 0, .AHEAD. ) ;
#89 = VERTEX_POINT ( 'NONE', #186 ) ;
#90 = FACE_OUTER_BOUND ( 'NONE', #254, .T. ) ;
#91 = LOCAL_TIME ( 14, 56, 8.000000000000000000, #298 ) ;
#92 = EDGE_CURVE ( 'NONE', #274, #274, #192, .T. ) ;
#93 = VERTEX_POINT ( 'NONE', #95 ) ;
#94 = FACE_OUTER_BOUND ( 'NONE', #15, .T. ) ;
#95 = CARTESIAN_POINT ( 'NONE',  ( 2.094888803305880013E-14, 1.499999999999999556, 6.000000000000000000 ) ) ;
#96 = EDGE_LOOP ( 'NONE', ( #251 ) ) ;
#97 = EDGE_LOOP ( 'NONE', ( #42 ) ) ;
#98 = CC_DESIGN_PERSON_AND_ORGANIZATION_ASSIGNMENT ( #222, #85, ( #175 ) ) ;
#99 = CC_DESIGN_APPROVAL ( #261, ( #175 ) ) ;
#100 = EDGE_LOOP ( 'NONE', ( #152 ) ) ;
#101 = CARTESIAN_POINT ( 'NONE',  ( 4.818244247603524030E-14, -1.690012582823347529E-15, 13.80000000000000071 ) ) ;
#102 = DIRECTION ( 'NONE',  ( -3.491481338843133355E-15, 1.224646799147353207E-16, -1.000000000000000000 ) ) ;
#103 = CARTESIAN_POINT ( 'NONE',  ( 1.571166602479410010E-14, 1.499999999999999556, 4.500000000000000000 ) ) ;
#104 = AXIS2_PLACEMENT_3D ( 'NONE', #128, #194, #209 ) ;
#105 = PLANE ( 'NONE',  #86 ) ;
#106 = DIRECTION ( 'NONE',  ( -3.491481338843133355E-15, 1.224646799147353207E-16, -1.000000000000000000 ) ) ;
#107 = CARTESIAN_POINT ( 'NONE',  ( 1.571166602479410010E-14, 1.124819836996392658E-32, 4.500000000000000000 ) ) ;
#108 = CIRCLE ( 'NONE', #55, 1.582852747271954463 ) ;
#109 = FACE_OUTER_BOUND ( 'NONE', #46, .T. ) ;
#110 = EDGE_CURVE ( 'NONE', #324, #324, #250, .T. ) ;
#111 = APPROVAL_ROLE ( '' ) ;
#112 = CALENDAR_DATE ( 2021, 13, 12 ) ;
#113 = APPROVAL_DATE_TIME ( #2, #325 ) ;
#114 = CIRCLE ( 'NONE', #4, 2.949999999999999734 ) ;
#115 = AXIS2_PLACEMENT_3D ( 'NONE', #311, #78, #257 ) ;
#116 = APPROVAL_DATE_TIME ( #8, #261 ) ;
#117 = EDGE_CURVE ( 'NONE', #149, #149, #133, .T. ) ;
#118 = DIRECTION ( 'NONE',  ( 4.275831445896959482E-31, 1.000000000000000000, 1.224646799147353207E-16 ) ) ;
#119 = AXIS2_PLACEMENT_3D ( 'NONE', #307, #233, #287 ) ;
#120 = EDGE_LOOP ( 'NONE', ( #70 ) ) ;
#121 = ADVANCED_FACE ( 'NONE', ( #342 ), #282, .F. ) ;
#122 = CARTESIAN_POINT ( 'NONE',  ( 1.899365848330664293E-13, 2.999999999999995559, 54.39999999999999858 ) ) ;
#123 = ORIENTED_EDGE ( 'NONE', *, *, #181, .T. ) ;
#124 = CYLINDRICAL_SURFACE ( 'NONE', #226, 1.500000000000000222 ) ;
#125 = ADVANCED_FACE ( 'NONE', ( #241 ), #232, .T. ) ;
#126 = UNCERTAINTY_MEASURE_WITH_UNIT (LENGTH_MEASURE( 1.000000000000000082E-05 ), #239, 'distance_accuracy_value', 'NONE');
#127 = AXIS2_PLACEMENT_3D ( 'NONE', #240, #280, #334 ) ;
#128 = CARTESIAN_POINT ( 'NONE',  ( 2.240072761029381388E-14, -7.857117568214668939E-16, 6.415823381635505918 ) ) ;
#129 = ORIENTED_EDGE ( 'NONE', *, *, #137, .T. ) ;
#130 = FACE_OUTER_BOUND ( 'NONE', #75, .T. ) ;
#131 = ADVANCED_FACE ( 'NONE', ( #158, #109 ), #220, .F. ) ;
#132 = FACE_OUTER_BOUND ( 'NONE', #150, .T. ) ;
#133 = CIRCLE ( 'NONE', #183, 2.000000000000000000 ) ;
#134 = DIRECTION ( 'NONE',  ( 3.491481338843133355E-15, -1.224646799147353207E-16, 1.000000000000000000 ) ) ;
#135 = ADVANCED_FACE ( 'NONE', ( #341, #48 ), #337, .F. ) ;
#136 = FACE_OUTER_BOUND ( 'NONE', #205, .T. ) ;
#137 = EDGE_CURVE ( 'NONE', #89, #89, #108, .T. ) ;
#138 = DIRECTION ( 'NONE',  ( 4.372396152817902039E-31, 1.000000000000000000, 1.224646799147353207E-16 ) ) ;
#139 = CARTESIAN_POINT ( 'NONE',  ( 0.0000000000000000000, 0.0000000000000000000, 0.0000000000000000000 ) ) ;
#140 = CLOSED_SHELL ( 'NONE', ( #273, #197, #125 ) ) ;
#141 = LOCAL_TIME ( 14, 56, 8.000000000000000000, #164 ) ;
#142 = PERSON_AND_ORGANIZATION_ROLE ( 'design_owner' ) ;
#143 = SHAPE_DEFINITION_REPRESENTATION ( #322, #22 ) ;
#144 = APPLICATION_PROTOCOL_DEFINITION ( 'international standard', 'config_control_design', 1994, #72 ) ;
#145 = AXIS2_PLACEMENT_3D ( 'NONE', #25, #102, #138 ) ;
#146 = FACE_OUTER_BOUND ( 'NONE', #227, .T. ) ;
#147 = ORIENTED_EDGE ( 'NONE', *, *, #110, .F. ) ;
#148 = APPROVAL_PERSON_ORGANIZATION ( #196, #325, #163 ) ;
#149 = VERTEX_POINT ( 'NONE', #206 ) ;
#150 = EDGE_LOOP ( 'NONE', ( #333 ) ) ;
#151 = ORIENTED_EDGE ( 'NONE', *, *, #92, .T. ) ;
#152 = ORIENTED_EDGE ( 'NONE', *, *, #117, .F. ) ;
#153 = VERTEX_POINT ( 'NONE', #50 ) ;
#154 = AXIS2_PLACEMENT_3D ( 'NONE', #101, #191, #218 ) ;
#155 = FACE_OUTER_BOUND ( 'NONE', #210, .T. ) ;
#156 = DIRECTION ( 'NONE',  ( -3.491481338843133355E-15, 1.224646799147353207E-16, -1.000000000000000000 ) ) ;
#157 = CARTESIAN_POINT ( 'NONE',  ( 2.304377683636468330E-14, -8.082668874372532006E-16, 6.600000000000000533 ) ) ;
#158 = FACE_BOUND ( 'NONE', #228, .T. ) ;
#159 = DIRECTION ( 'NONE',  ( 0.0000000000000000000, 1.000000000000000000, 0.0000000000000000000 ) ) ;
#160 = DIRECTION ( 'NONE',  ( -3.491481338843133355E-15, 1.224646799147353207E-16, -1.000000000000000000 ) ) ;
#161 = DIRECTION ( 'NONE',  ( 0.0000000000000000000, 1.000000000000000000, 0.0000000000000000000 ) ) ;
#162 = AXIS2_PLACEMENT_3D ( 'NONE', #68, #11, #299 ) ;
#163 = APPROVAL_ROLE ( '' ) ;
#164 = COORDINATED_UNIVERSAL_TIME_OFFSET ( 1, 0, .AHEAD. ) ;
#165 = DATE_AND_TIME ( #244, #141 ) ;
#166 = DIRECTION ( 'NONE',  ( -3.491481338843133355E-15, 1.224646799147353207E-16, -1.000000000000000000 ) ) ;
#167 = DATE_TIME_ROLE ( 'creation_date' ) ;
#168 = APPROVAL_PERSON_ORGANIZATION ( #265, #261, #111 ) ;
#169 = DIRECTION ( 'NONE',  ( -3.491481338843133355E-15, 1.224646799147353207E-16, -1.000000000000000000 ) ) ;
#170 = DATE_AND_TIME ( #112, #91 ) ;
#171 = CARTESIAN_POINT ( 'NONE',  ( 1.571166602479410010E-14, -5.510910596163088569E-16, 4.500000000000000000 ) ) ;
#172 = CARTESIAN_POINT ( 'NONE',  ( 1.571166602479410010E-14, 1.499999999999999556, 4.500000000000000000 ) ) ;
#173 = EDGE_LOOP ( 'NONE', ( #37 ) ) ;
#174 = ORIENTED_EDGE ( 'NONE', *, *, #340, .F. ) ;
#175 = PRODUCT_DEFINITION_FORMATION_WITH_SPECIFIED_SOURCE ( 'ANY', '', #216, .NOT_KNOWN. ) ;
#176 = FACE_OUTER_BOUND ( 'NONE', #230, .T. ) ;
#177 = DIRECTION ( 'NONE',  ( 0.0000000000000000000, 1.000000000000000000, 0.0000000000000000000 ) ) ;
#178 = ORIENTED_EDGE ( 'NONE', *, *, #59, .F. ) ;
#179 = ORIENTED_EDGE ( 'NONE', *, *, #137, .F. ) ;
#180 =( NAMED_UNIT ( * ) PLANE_ANGLE_UNIT ( ) SI_UNIT ( $, .RADIAN. ) );
#181 = EDGE_CURVE ( 'NONE', #153, #153, #223, .T. ) ;
#182 = EDGE_LOOP ( 'NONE', ( #304 ) ) ;
#183 = AXIS2_PLACEMENT_3D ( 'NONE', #157, #76, #19 ) ;
#184 = AXIS2_PLACEMENT_3D ( 'NONE', #288, #258, #21 ) ;
#185 = DIRECTION ( 'NONE',  ( -3.491481338843133355E-15, 1.224646799147353207E-16, -1.000000000000000000 ) ) ;
#186 = CARTESIAN_POINT ( 'NONE',  ( 2.304377683636468014E-14, 1.582852747271953575, 6.599999999999999645 ) ) ;
#187 = DIRECTION ( 'NONE',  ( -3.491481338843133355E-15, 1.224646799147353207E-16, -1.000000000000000000 ) ) ;
#188 = DESIGN_CONTEXT ( 'detailed design', #72, 'design' ) ;
#189 = ADVANCED_FACE ( 'NONE', ( #315, #285 ), #297, .T. ) ;
#190 = DIRECTION ( 'NONE',  ( 0.0000000000000000000, 1.000000000000000000, 0.0000000000000000000 ) ) ;
#191 = DIRECTION ( 'NONE',  ( -3.491481338843133355E-15, 1.224646799147353207E-16, -1.000000000000000000 ) ) ;
#192 = CIRCLE ( 'NONE', #5, 3.000000000000002220 ) ;
#193 = CYLINDRICAL_SURFACE ( 'NONE', #264, 2.999999999999998668 ) ;
#194 = DIRECTION ( 'NONE',  ( -3.491481338843133355E-15, 1.224646799147353207E-16, -1.000000000000000000 ) ) ;
#195 = PERSON_AND_ORGANIZATION ( #35, #87 ) ;
#196 = PERSON_AND_ORGANIZATION ( #35, #87 ) ;
#197 = ADVANCED_FACE ( 'NONE', ( #94, #176 ), #279, .T. ) ;
#198 = AXIS2_PLACEMENT_3D ( 'NONE', #171, #331, #177 ) ;
#199 = SECURITY_CLASSIFICATION_LEVEL ( 'unclassified' ) ;
#200 = CALENDAR_DATE ( 2021, 13, 12 ) ;
#201 = CC_DESIGN_DATE_AND_TIME_ASSIGNMENT ( #170, #272, ( #20 ) ) ;
#202 = PERSON_AND_ORGANIZATION ( #35, #87 ) ;
#203 = CYLINDRICAL_SURFACE ( 'NONE', #162, 2.950000000000000178 ) ;
#204 = ORIENTED_EDGE ( 'NONE', *, *, #34, .T. ) ;
#205 = EDGE_LOOP ( 'NONE', ( #281 ) ) ;
#206 = CARTESIAN_POINT ( 'NONE',  ( 2.304377683636468330E-14, 1.999999999999999112, 6.600000000000000533 ) ) ;
#207 = TOROIDAL_SURFACE ( 'NONE', #145, 3.500000000000000888, 2.000000000000000000 ) ;
#208 = ORIENTED_EDGE ( 'NONE', *, *, #30, .F. ) ;
#209 = DIRECTION ( 'NONE',  ( 0.0000000000000000000, 1.000000000000000000, 0.0000000000000000000 ) ) ;
#210 = EDGE_LOOP ( 'NONE', ( #129 ) ) ;
#211 = CARTESIAN_POINT ( 'NONE',  ( 0.0000000000000000000, 0.0000000000000000000, 0.0000000000000000000 ) ) ;
#212 = CIRCLE ( 'NONE', #154, 2.999999999999995115 ) ;
#213 = DIRECTION ( 'NONE',  ( 3.491481338843133355E-15, -1.224646799147353207E-16, 1.000000000000000000 ) ) ;
#214 =( NAMED_UNIT ( * ) SI_UNIT ( $, .STERADIAN. ) SOLID_ANGLE_UNIT ( ) );
#215 = DIRECTION ( 'NONE',  ( 0.0000000000000000000, 1.000000000000000000, 0.0000000000000000000 ) ) ;
#216 = PRODUCT ( '383394', '383394', '', ( #60 ) ) ;
#217 = CARTESIAN_POINT ( 'NONE',  ( 1.571166602479410010E-14, -5.510910596163088569E-16, 4.500000000000000000 ) ) ;
#218 = DIRECTION ( 'NONE',  ( 0.0000000000000000000, 1.000000000000000000, 0.0000000000000000000 ) ) ;
#219 = CIRCLE ( 'NONE', #198, 1.500000000000000222 ) ;
#220 = PLANE ( 'NONE',  #29 ) ;
#221 = CALENDAR_DATE ( 2021, 13, 12 ) ;
#222 = PERSON_AND_ORGANIZATION ( #35, #87 ) ;
#223 = CIRCLE ( 'NONE', #28, 2.950000000000000178 ) ;
#224 = CC_DESIGN_PERSON_AND_ORGANIZATION_ASSIGNMENT ( #202, #295, ( #20 ) ) ;
#225 = VERTEX_POINT ( 'NONE', #277 ) ;
#226 = AXIS2_PLACEMENT_3D ( 'NONE', #71, #169, #43 ) ;
#227 = EDGE_LOOP ( 'NONE', ( #123 ) ) ;
#228 = EDGE_LOOP ( 'NONE', ( #13 ) ) ;
#229 = EDGE_LOOP ( 'NONE', ( #308 ) ) ;
#230 = EDGE_LOOP ( 'NONE', ( #39 ) ) ;
#231 =( GEOMETRIC_REPRESENTATION_CONTEXT ( 3 ) GLOBAL_UNCERTAINTY_ASSIGNED_CONTEXT ( ( #126 ) ) GLOBAL_UNIT_ASSIGNED_CONTEXT ( ( #239, #180, #214 ) ) REPRESENTATION_CONTEXT ( 'NONE', 'WORKASPACE' ) );
#232 = PLANE ( 'NONE',  #115 ) ;
#233 = DIRECTION ( 'NONE',  ( 3.491481338843133355E-15, -1.224646799147353207E-16, 1.000000000000000000 ) ) ;
#234 = CARTESIAN_POINT ( 'NONE',  ( -3.420766224635539668E-31, 1.199843275983066968E-32, -9.797463863200756777E-17 ) ) ;
#235 = AXIS2_PLACEMENT_3D ( 'NONE', #234, #17, #82 ) ;
#236 = CARTESIAN_POINT ( 'NONE',  ( 2.304377683636468014E-14, -8.082668874372531019E-16, 6.599999999999999645 ) ) ;
#237 = VERTEX_POINT ( 'NONE', #312 ) ;
#238 = DIRECTION ( 'NONE',  ( -3.491481338843133355E-15, 1.224646799147353207E-16, -1.000000000000000000 ) ) ;
#239 =( LENGTH_UNIT ( ) NAMED_UNIT ( * ) SI_UNIT ( .MILLI., .METRE. ) );
#240 = CARTESIAN_POINT ( 'NONE',  ( -1.710383112317769834E-31, 5.999216379915334842E-33, -4.898731931600378388E-17 ) ) ;
#241 = FACE_OUTER_BOUND ( 'NONE', #300, .T. ) ;
#242 = CONICAL_SURFACE ( 'NONE', #10, 2.400000000000003020, 0.7853981633974450594 ) ;
#243 = APPROVAL_STATUS ( 'not_yet_approved' ) ;
#244 = CALENDAR_DATE ( 2021, 13, 12 ) ;
#245 = DIRECTION ( 'NONE',  ( 0.0000000000000000000, 0.0000000000000000000, 1.000000000000000000 ) ) ;
#246 = AXIS2_PLACEMENT_3D ( 'NONE', #256, #290, #270 ) ;
#247 = EDGE_LOOP ( 'NONE', ( #9 ) ) ;
#248 = CC_DESIGN_PERSON_AND_ORGANIZATION_ASSIGNMENT ( #3, #53, ( #326 ) ) ;
#249 = ADVANCED_FACE ( 'NONE', ( #90, #296 ), #124, .T. ) ;
#250 = CIRCLE ( 'NONE', #14, 2.400000000000003020 ) ;
#251 = ORIENTED_EDGE ( 'NONE', *, *, #16, .T. ) ;
#252 = ADVANCED_FACE ( 'NONE', ( #271, #146 ), #203, .T. ) ;
#253 = EDGE_LOOP ( 'NONE', ( #336 ) ) ;
#254 = EDGE_LOOP ( 'NONE', ( #208 ) ) ;
#255 = LOCAL_TIME ( 14, 56, 8.000000000000000000, #36 ) ;
#256 = CARTESIAN_POINT ( 'NONE',  ( 2.304377683636468014E-14, -8.082668874372531019E-16, 6.599999999999999645 ) ) ;
#257 = DIRECTION ( 'NONE',  ( -4.275831445896958607E-31, -1.000000000000000000, -1.224646799147353207E-16 ) ) ;
#258 = DIRECTION ( 'NONE',  ( 3.491481338843133355E-15, -1.224646799147353207E-16, 1.000000000000000000 ) ) ;
#259 = AXIS2_PLACEMENT_3D ( 'NONE', #66, #166, #118 ) ;
#260 = DIRECTION ( 'NONE',  ( 4.275831445896958607E-31, 1.000000000000000000, 1.224646799147353454E-16 ) ) ;
#261 = APPROVAL ( #320, 'UNSPECIFIED' ) ;
#262 = DIRECTION ( 'NONE',  ( -3.491481338843133355E-15, 1.224646799147353207E-16, -1.000000000000000000 ) ) ;
#263 = DIRECTION ( 'NONE',  ( 0.0000000000000000000, 1.000000000000000000, 0.0000000000000000000 ) ) ;
#264 = AXIS2_PLACEMENT_3D ( 'NONE', #211, #310, #260 ) ;
#265 = PERSON_AND_ORGANIZATION ( #35, #87 ) ;
#266 = COORDINATED_UNIVERSAL_TIME_OFFSET ( 1, 0, .AHEAD. ) ;
#267 = PERSON_AND_ORGANIZATION ( #35, #87 ) ;
#268 = CONICAL_SURFACE ( 'NONE', #246, 1.582852747271954463, 0.2094395102393088459 ) ;
#269 = DIRECTION ( 'NONE',  ( -3.491481338843133355E-15, 1.224646799147353207E-16, -1.000000000000000000 ) ) ;
#270 = DIRECTION ( 'NONE',  ( 0.0000000000000000000, -1.000000000000000000, 0.0000000000000000000 ) ) ;
#271 = FACE_OUTER_BOUND ( 'NONE', #120, .T. ) ;
#272 = DATE_TIME_ROLE ( 'classification_date' ) ;
#273 = ADVANCED_FACE ( 'NONE', ( #26 ), #318, .F. ) ;
#274 = VERTEX_POINT ( 'NONE', #122 ) ;
#275 = EDGE_LOOP ( 'NONE', ( #147 ) ) ;
#276 = AXIS2_PLACEMENT_3D ( 'NONE', #139, #245, #63 ) ;
#277 = CARTESIAN_POINT ( 'NONE',  ( 3.864859865809859393E-14, 2.949999999999998845, 11.06939860400468589 ) ) ;
#278 = CC_DESIGN_PERSON_AND_ORGANIZATION_ASSIGNMENT ( #31, #319, ( #175 ) ) ;
#279 = CYLINDRICAL_SURFACE ( 'NONE', #259, 1.500000000000000000 ) ;
#280 = DIRECTION ( 'NONE',  ( 3.491481338843133355E-15, -1.224646799147353207E-16, 1.000000000000000000 ) ) ;
#281 = ORIENTED_EDGE ( 'NONE', *, *, #292, .F. ) ;
#282 = PLANE ( 'NONE',  #338 ) ;
#283 = APPROVAL_PERSON_ORGANIZATION ( #195, #73, #293 ) ;
#284 = CARTESIAN_POINT ( 'NONE',  ( 4.818244247603524030E-14, 2.999999999999993339, 13.80000000000000071 ) ) ;
#285 = FACE_OUTER_BOUND ( 'NONE', #330, .T. ) ;
#286 = DIRECTION ( 'NONE',  ( 4.275831445896958607E-31, 1.000000000000000000, 1.224646799147353207E-16 ) ) ;
#287 = DIRECTION ( 'NONE',  ( 0.0000000000000000000, -1.000000000000000000, 0.0000000000000000000 ) ) ;
#288 = CARTESIAN_POINT ( 'NONE',  ( 2.304377683636468014E-14, 2.686709228779011539E-32, 6.599999999999999645 ) ) ;
#289 = EDGE_LOOP ( 'NONE', ( #179 ) ) ;
#290 = DIRECTION ( 'NONE',  ( 3.491481338843133355E-15, -1.224646799147353207E-16, 1.000000000000000000 ) ) ;
#291 = ADVANCED_FACE ( 'NONE', ( #58, #47 ), #242, .T. ) ;
#292 = EDGE_CURVE ( 'NONE', #77, #77, #212, .T. ) ;
#293 = APPROVAL_ROLE ( '' ) ;
#294 = LOCAL_TIME ( 14, 56, 8.000000000000000000, #266 ) ;
#295 = PERSON_AND_ORGANIZATION_ROLE ( 'classification_officer' ) ;
#296 = FACE_OUTER_BOUND ( 'NONE', #96, .T. ) ;
#297 = CONICAL_SURFACE ( 'NONE', #119, 2.949999999999999734, 0.2094395102393125374 ) ;
#298 = COORDINATED_UNIVERSAL_TIME_OFFSET ( 1, 0, .AHEAD. ) ;
#299 = DIRECTION ( 'NONE',  ( 4.275831445896958607E-31, 1.000000000000000000, 1.224646799147353207E-16 ) ) ;
#300 = EDGE_LOOP ( 'NONE', ( #174 ) ) ;
#301 = CC_DESIGN_PERSON_AND_ORGANIZATION_ASSIGNMENT ( #267, #142, ( #216 ) ) ;
#302 = MANIFOLD_SOLID_BREP ( 'Corps-Déplacer/Copier1[1]', #328 ) ;
#303 = CC_DESIGN_APPROVAL ( #73, ( #20 ) ) ;
#304 = ORIENTED_EDGE ( 'NONE', *, *, #309, .F. ) ;
#305 = ORIENTED_EDGE ( 'NONE', *, *, #117, .T. ) ;
#306 = FACE_BOUND ( 'NONE', #182, .T. ) ;
#307 = CARTESIAN_POINT ( 'NONE',  ( 3.864859865809859393E-14, -1.355610356888051889E-15, 11.06939860400468589 ) ) ;
#308 = ORIENTED_EDGE ( 'NONE', *, *, #92, .F. ) ;
#309 = EDGE_CURVE ( 'NONE', #237, #237, #62, .T. ) ;
#310 = DIRECTION ( 'NONE',  ( -3.491481338843133355E-15, 1.224646799147353207E-16, -1.000000000000000000 ) ) ;
#311 = CARTESIAN_POINT ( 'NONE',  ( 1.571166602479410010E-14, 1.124819836996392658E-32, 4.500000000000000000 ) ) ;
#312 = CARTESIAN_POINT ( 'NONE',  ( 2.240072761029381388E-14, 1.543704798532386846, 6.415823381635505918 ) ) ;
#313 = CARTESIAN_POINT ( 'NONE',  ( 1.899365848330664293E-13, -6.662078587361600895E-15, 54.39999999999999858 ) ) ;
#314 = ADVANCED_FACE ( 'NONE', ( #306, #155 ), #268, .T. ) ;
#315 = FACE_BOUND ( 'NONE', #100, .T. ) ;
#316 = DIRECTION ( 'NONE',  ( 0.0000000000000000000, 1.000000000000000000, 0.0000000000000000000 ) ) ;
#317 = DIRECTION ( 'NONE',  ( -4.275831445896958607E-31, -1.000000000000000000, -1.224646799147353207E-16 ) ) ;
#318 = PLANE ( 'NONE',  #127 ) ;
#319 = PERSON_AND_ORGANIZATION_ROLE ( 'creator' ) ;
#320 = APPROVAL_STATUS ( 'not_yet_approved' ) ;
#321 = LOCAL_TIME ( 14, 56, 8.000000000000000000, #88 ) ;
#322 = PRODUCT_DEFINITION_SHAPE ( 'NONE', 'NONE',  #326 ) ;
#323 = CARTESIAN_POINT ( 'NONE',  ( 4.818244247603524030E-14, -1.690012582823347529E-15, 13.80000000000000071 ) ) ;
#324 = VERTEX_POINT ( 'NONE', #12 ) ;
#325 = APPROVAL ( #243, 'UNSPECIFIED' ) ;
#326 = PRODUCT_DEFINITION ( 'UNKNOWN', '', #175, #188 ) ;
#327 = AXIS2_PLACEMENT_3D ( 'NONE', #217, #185, #190 ) ;
#328 = CLOSED_SHELL ( 'NONE', ( #7, #249, #45, #314, #135, #189, #252, #131, #74, #291, #121 ) ) ;
#329 = CC_DESIGN_SECURITY_CLASSIFICATION ( #20, ( #175 ) ) ;
#330 = EDGE_LOOP ( 'NONE', ( #204 ) ) ;
#331 = DIRECTION ( 'NONE',  ( -3.491481338843133355E-15, 1.224646799147353207E-16, -1.000000000000000000 ) ) ;
#332 = ORIENTED_EDGE ( 'NONE', *, *, #292, .T. ) ;
#333 = ORIENTED_EDGE ( 'NONE', *, *, #16, .F. ) ;
#334 = DIRECTION ( 'NONE',  ( -4.275831445896958607E-31, -1.000000000000000000, -1.224646799147353207E-16 ) ) ;
#335 = CIRCLE ( 'NONE', #54, 1.500000000000000222 ) ;
#336 = ORIENTED_EDGE ( 'NONE', *, *, #59, .T. ) ;
#337 = PLANE ( 'NONE',  #184 ) ;
#338 = AXIS2_PLACEMENT_3D ( 'NONE', #57, #262, #286 ) ;
#339 = CARTESIAN_POINT ( 'NONE',  ( 4.818244247603524030E-14, 4.461785353419020636E-32, 13.80000000000000071 ) ) ;
#340 = EDGE_CURVE ( 'NONE', #18, #18, #219, .T. ) ;
#341 = FACE_BOUND ( 'NONE', #289, .T. ) ;
#342 = FACE_OUTER_BOUND ( 'NONE', #275, .T. ) ;
#343 = FACE_OUTER_BOUND ( 'NONE', #173, .T. ) ;
ENDSEC;
END-ISO-10303-21;
