ISO-10303-21;
HEADER;
FILE_DESCRIPTION (( 'STEP AP203' ),
    '1' );
FILE_NAME ('383393.step',
    '2021-12-13T13:56:08',
    ( '' ),
    ( '' ),
    'SwSTEP 2.0',
    'SolidWorks 2019',
    '' );
FILE_SCHEMA (( 'CONFIG_CONTROL_DESIGN' ));
ENDSEC;

DATA;
#1 = DIRECTION ( 'NONE',  ( -4.275831445896958607E-31, -1.000000000000000000, -1.224646799147353207E-16 ) ) ;
#2 = VERTEX_POINT ( 'NONE', #247 ) ;
#3 = APPROVAL ( #17, 'UNSPECIFIED' ) ;
#4 = MECHANICAL_CONTEXT ( 'NONE', #230, 'mechanical' ) ;
#5 = DIRECTION ( 'NONE',  ( 0.0000000000000000000, 1.000000000000000000, 0.0000000000000000000 ) ) ;
#6 = CIRCLE ( 'NONE', #201, 0.8000000000000000444 ) ;
#7 = CARTESIAN_POINT ( 'NONE',  ( 5.167392381487837366E-14, 2.999999999999995559, 14.80000000000000071 ) ) ;
#8 = PERSON_AND_ORGANIZATION ( #339, #279 ) ;
#9 = CARTESIAN_POINT ( 'NONE',  ( 5.167392381487837366E-14, 4.461785353419022825E-32, 14.80000000000000071 ) ) ;
#10 = SECURITY_CLASSIFICATION ( '', '', #93 ) ;
#11 = DIRECTION ( 'NONE',  ( 0.0000000000000000000, -1.000000000000000000, 0.0000000000000000000 ) ) ;
#12 = EDGE_LOOP ( 'NONE', ( #324 ) ) ;
#13 = CC_DESIGN_PERSON_AND_ORGANIZATION_ASSIGNMENT ( #256, #340, ( #161 ) ) ;
#14 = DIRECTION ( 'NONE',  ( -3.491481338843133355E-15, 1.224646799147353207E-16, -1.000000000000000000 ) ) ;
#15 = AXIS2_PLACEMENT_3D ( 'NONE', #167, #118, #58 ) ;
#16 = FACE_OUTER_BOUND ( 'NONE', #181, .T. ) ;
#17 = APPROVAL_STATUS ( 'not_yet_approved' ) ;
#18 = AXIS2_PLACEMENT_3D ( 'NONE', #303, #34, #337 ) ;
#19 = AXIS2_PLACEMENT_3D ( 'NONE', #288, #94, #40 ) ;
#20 = EDGE_LOOP ( 'NONE', ( #317 ) ) ;
#21 = CIRCLE ( 'NONE', #114, 2.950000000000000622 ) ;
#22 = CALENDAR_DATE ( 2021, 13, 12 ) ;
#23 = PRODUCT_DEFINITION ( 'UNKNOWN', '', #161, #203 ) ;
#24 = CARTESIAN_POINT ( 'NONE',  ( 1.571166602479410325E-14, 1.349999999999999645, 4.500000000000000888 ) ) ;
#25 = APPLICATION_PROTOCOL_DEFINITION ( 'international standard', 'config_control_design', 1994, #230 ) ;
#26 = AXIS2_PLACEMENT_3D ( 'NONE', #267, #141, #51 ) ;
#27 =( LENGTH_UNIT ( ) NAMED_UNIT ( * ) SI_UNIT ( .MILLI., .METRE. ) );
#28 = EDGE_LOOP ( 'NONE', ( #250 ) ) ;
#29 = ORIENTED_EDGE ( 'NONE', *, *, #197, .F. ) ;
#30 = FACE_OUTER_BOUND ( 'NONE', #131, .T. ) ;
#31 = DATE_AND_TIME ( #335, #49 ) ;
#32 = CARTESIAN_POINT ( 'NONE',  ( 4.199347119824069440E-14, -1.472932692375549069E-15, 12.02740817516578886 ) ) ;
#33 = ADVANCED_FACE ( 'NONE', ( #55, #125 ), #62, .T. ) ;
#34 = DIRECTION ( 'NONE',  ( 3.491481338843133355E-15, -1.224646799147353207E-16, 1.000000000000000000 ) ) ;
#35 = PERSON_AND_ORGANIZATION ( #339, #279 ) ;
#36 = FACE_OUTER_BOUND ( 'NONE', #343, .T. ) ;
#37 = AXIS2_PLACEMENT_3D ( 'NONE', #334, #87, #227 ) ;
#38 = DIRECTION ( 'NONE',  ( 3.491481338843133355E-15, -1.224646799147353207E-16, 1.000000000000000000 ) ) ;
#39 = DIRECTION ( 'NONE',  ( 0.0000000000000000000, 1.000000000000000000, 0.0000000000000000000 ) ) ;
#40 = DIRECTION ( 'NONE',  ( 0.0000000000000000000, 1.000000000000000000, 0.0000000000000000000 ) ) ;
#41 = APPROVAL_DATE_TIME ( #209, #53 ) ;
#42 = AXIS2_PLACEMENT_3D ( 'NONE', #52, #138, #248 ) ;
#43 = EDGE_LOOP ( 'NONE', ( #310 ) ) ;
#44 = ORIENTED_EDGE ( 'NONE', *, *, #245, .F. ) ;
#45 = ORIENTED_EDGE ( 'NONE', *, *, #223, .F. ) ;
#46 = VERTEX_POINT ( 'NONE', #160 ) ;
#47 = APPROVAL_ROLE ( '' ) ;
#48 = EDGE_LOOP ( 'NONE', ( #45 ) ) ;
#49 = LOCAL_TIME ( 14, 56, 8.000000000000000000, #146 ) ;
#50 = VERTEX_POINT ( 'NONE', #162 ) ;
#51 = DIRECTION ( 'NONE',  ( 0.0000000000000000000, 1.000000000000000000, 0.0000000000000000000 ) ) ;
#52 = CARTESIAN_POINT ( 'NONE',  ( 0.0000000000000000000, 0.0000000000000000000, 0.0000000000000000000 ) ) ;
#53 = APPROVAL ( #134, 'UNSPECIFIED' ) ;
#54 = VERTEX_POINT ( 'NONE', #7 ) ;
#55 = FACE_OUTER_BOUND ( 'NONE', #28, .T. ) ;
#56 = CIRCLE ( 'NONE', #156, 0.8437047985323831156 ) ;
#57 = APPROVAL_PERSON_ORGANIZATION ( #265, #53, #47 ) ;
#58 = DIRECTION ( 'NONE',  ( 0.0000000000000000000, 1.000000000000000000, 0.0000000000000000000 ) ) ;
#59 = ADVANCED_FACE ( 'NONE', ( #61 ), #64, .F. ) ;
#60 = DIRECTION ( 'NONE',  ( 0.0000000000000000000, 1.000000000000000000, 0.0000000000000000000 ) ) ;
#61 = FACE_OUTER_BOUND ( 'NONE', #157, .T. ) ;
#62 = CYLINDRICAL_SURFACE ( 'NONE', #278, 0.7999999999999997113 ) ;
#63 = DIRECTION ( 'NONE',  ( 0.0000000000000000000, 1.000000000000000000, 0.0000000000000000000 ) ) ;
#64 = PLANE ( 'NONE',  #83 ) ;
#65 = ADVANCED_FACE ( 'NONE', ( #95 ), #237, .T. ) ;
#66 = PERSON_AND_ORGANIZATION ( #339, #279 ) ;
#67 = AXIS2_PLACEMENT_3D ( 'NONE', #272, #187, #5 ) ;
#68 = DIRECTION ( 'NONE',  ( -3.491481338843133355E-15, 1.224646799147353207E-16, -1.000000000000000000 ) ) ;
#69 = CYLINDRICAL_SURFACE ( 'NONE', #130, 0.7999999999999999334 ) ;
#70 = DATE_TIME_ROLE ( 'classification_date' ) ;
#71 = DATE_AND_TIME ( #211, #102 ) ;
#72 = EDGE_CURVE ( 'NONE', #46, #46, #232, .T. ) ;
#73 = CIRCLE ( 'NONE', #308, 0.9253640596059534706 ) ;
#74 = EDGE_LOOP ( 'NONE', ( #75 ) ) ;
#75 = ORIENTED_EDGE ( 'NONE', *, *, #223, .T. ) ;
#76 = CARTESIAN_POINT ( 'NONE',  ( 1.920314736363723472E-13, 2.399999999999995914, 55.00000000000000000 ) ) ;
#77 = CARTESIAN_POINT ( 'NONE',  ( -3.206946816946517495E-31, 1.124845523507979440E-32, -9.185060739889580741E-17 ) ) ;
#78 = AXIS2_PLACEMENT_3D ( 'NONE', #342, #257, #293 ) ;
#79 = ORIENTED_EDGE ( 'NONE', *, *, #326, .F. ) ;
#80 =( NAMED_UNIT ( * ) SI_UNIT ( $, .STERADIAN. ) SOLID_ANGLE_UNIT ( ) );
#81 = ADVANCED_BREP_SHAPE_REPRESENTATION ( '383393', ( #166, #174, #42 ), #216 ) ;
#82 = DIRECTION ( 'NONE',  ( -3.491481338843133355E-15, 1.224646799147353207E-16, -1.000000000000000000 ) ) ;
#83 = AXIS2_PLACEMENT_3D ( 'NONE', #313, #150, #173 ) ;
#84 = CIRCLE ( 'NONE', #287, 2.400000000000003020 ) ;
#85 = CIRCLE ( 'NONE', #67, 3.000000000000002220 ) ;
#86 = PERSON_AND_ORGANIZATION_ROLE ( 'design_owner' ) ;
#87 = DIRECTION ( 'NONE',  ( 3.491481338843133355E-15, -1.224646799147353207E-16, 1.000000000000000000 ) ) ;
#88 = CARTESIAN_POINT ( 'NONE',  ( 1.437032053095455983E-14, -5.040429930175740613E-16, 4.115823381635492773 ) ) ;
#89 = ADVANCED_FACE ( 'NONE', ( #210, #252 ), #238, .T. ) ;
#90 = DIRECTION ( 'NONE',  ( -3.491481338843133355E-15, 1.224646799147353207E-16, -1.000000000000000000 ) ) ;
#91 = DIRECTION ( 'NONE',  ( -3.491481338843133355E-15, 1.224646799147353207E-16, -1.000000000000000000 ) ) ;
#92 = CC_DESIGN_APPROVAL ( #53, ( #10 ) ) ;
#93 = SECURITY_CLASSIFICATION_LEVEL ( 'unclassified' ) ;
#94 = DIRECTION ( 'NONE',  ( -3.491481338843133355E-15, 1.224646799147353207E-16, -1.000000000000000000 ) ) ;
#95 = FACE_OUTER_BOUND ( 'NONE', #101, .T. ) ;
#96 = FACE_OUTER_BOUND ( 'NONE', #217, .T. ) ;
#97 = DIRECTION ( 'NONE',  ( 4.275831445896959482E-31, 1.000000000000000000, 1.224646799147353207E-16 ) ) ;
#98 = COORDINATED_UNIVERSAL_TIME_OFFSET ( 1, 0, .AHEAD. ) ;
#99 = EDGE_CURVE ( 'NONE', #133, #133, #73, .T. ) ;
#100 = DIRECTION ( 'NONE',  ( -3.491481338843133355E-15, 1.224646799147353207E-16, -1.000000000000000000 ) ) ;
#101 = EDGE_LOOP ( 'NONE', ( #117 ) ) ;
#102 = LOCAL_TIME ( 14, 56, 8.000000000000000000, #98 ) ;
#103 = EDGE_CURVE ( 'NONE', #137, #137, #84, .T. ) ;
#104 = EDGE_LOOP ( 'NONE', ( #222 ) ) ;
#105 = CARTESIAN_POINT ( 'NONE',  ( 8.379555213223518475E-15, 0.7999999999999996003, 2.399999999999999911 ) ) ;
#106 = VERTEX_POINT ( 'NONE', #270 ) ;
#107 = EDGE_LOOP ( 'NONE', ( #29 ) ) ;
#108 = APPROVAL_PERSON_ORGANIZATION ( #66, #3, #128 ) ;
#109 = ORIENTED_EDGE ( 'NONE', *, *, #200, .F. ) ;
#110 = PERSON_AND_ORGANIZATION_ROLE ( 'creator' ) ;
#111 = VERTEX_POINT ( 'NONE', #105 ) ;
#112 = FACE_OUTER_BOUND ( 'NONE', #74, .T. ) ;
#113 = CARTESIAN_POINT ( 'NONE',  ( 1.920314736363723472E-13, -6.735557395310442615E-15, 55.00000000000000000 ) ) ;
#114 = AXIS2_PLACEMENT_3D ( 'NONE', #32, #82, #39 ) ;
#115 = ADVANCED_FACE ( 'NONE', ( #169 ), #282, .F. ) ;
#116 = EDGE_LOOP ( 'NONE', ( #271 ) ) ;
#117 = ORIENTED_EDGE ( 'NONE', *, *, #284, .F. ) ;
#118 = DIRECTION ( 'NONE',  ( -3.491481338843133355E-15, 1.224646799147353207E-16, -1.000000000000000000 ) ) ;
#119 = CC_DESIGN_DATE_AND_TIME_ASSIGNMENT ( #31, #70, ( #10 ) ) ;
#120 = DIRECTION ( 'NONE',  ( 3.491481338843133355E-15, -1.224646799147353207E-16, 1.000000000000000000 ) ) ;
#121 = AXIS2_PLACEMENT_3D ( 'NONE', #9, #120, #333 ) ;
#122 = UNCERTAINTY_MEASURE_WITH_UNIT (LENGTH_MEASURE( 1.000000000000000082E-05 ), #27, 'distance_accuracy_value', 'NONE');
#123 = FACE_BOUND ( 'NONE', #107, .T. ) ;
#124 = APPROVAL_DATE_TIME ( #71, #3 ) ;
#125 = FACE_OUTER_BOUND ( 'NONE', #12, .T. ) ;
#126 = CALENDAR_DATE ( 2021, 13, 12 ) ;
#127 = CC_DESIGN_DATE_AND_TIME_ASSIGNMENT ( #286, #307, ( #23 ) ) ;
#129 = CIRCLE ( 'NONE', #205, 0.7999999999999999334 ) ;
#128 = APPROVAL_ROLE ( '' ) ;
#130 = AXIS2_PLACEMENT_3D ( 'NONE', #290, #139, #249 ) ;
#131 = EDGE_LOOP ( 'NONE', ( #264 ) ) ;
#132 = COORDINATED_UNIVERSAL_TIME_OFFSET ( 1, 0, .AHEAD. ) ;
#133 = VERTEX_POINT ( 'NONE', #246 ) ;
#134 = APPROVAL_STATUS ( 'not_yet_approved' ) ;
#135 = LOCAL_TIME ( 14, 56, 8.000000000000000000, #226 ) ;
#136 = LOCAL_TIME ( 14, 56, 8.000000000000000000, #132 ) ;
#137 = VERTEX_POINT ( 'NONE', #76 ) ;
#138 = DIRECTION ( 'NONE',  ( 0.0000000000000000000, 0.0000000000000000000, 1.000000000000000000 ) ) ;
#139 = DIRECTION ( 'NONE',  ( -3.491481338843133355E-15, 1.224646799147353207E-16, -1.000000000000000000 ) ) ;
#140 = CC_DESIGN_APPROVAL ( #184, ( #23 ) ) ;
#141 = DIRECTION ( 'NONE',  ( -3.491481338843133355E-15, 1.224646799147353207E-16, -1.000000000000000000 ) ) ;
#142 = COORDINATED_UNIVERSAL_TIME_OFFSET ( 1, 0, .AHEAD. ) ;
#143 = CARTESIAN_POINT ( 'NONE',  ( 1.920314736363723472E-13, -6.735557395310442615E-15, 55.00000000000000000 ) ) ;
#144 = EDGE_CURVE ( 'NONE', #163, #163, #129, .T. ) ;
#145 = CLOSED_SHELL ( 'NONE', ( #115, #320, #231, #220, #179, #235, #158, #191, #304, #89, #273 ) ) ;
#146 = COORDINATED_UNIVERSAL_TIME_OFFSET ( 1, 0, .AHEAD. ) ;
#147 = CARTESIAN_POINT ( 'NONE',  ( 1.291848095371959184E-14, -4.336808689942017736E-16, 3.699999999999999734 ) ) ;
#148 = CARTESIAN_POINT ( 'NONE',  ( 0.0000000000000000000, 0.0000000000000000000, 0.0000000000000000000 ) ) ;
#149 = CARTESIAN_POINT ( 'NONE',  ( 1.920314736363723472E-13, 1.799711739194220919E-32, 55.00000000000000000 ) ) ;
#150 = DIRECTION ( 'NONE',  ( 3.491481338843133355E-15, -1.224646799147353207E-16, 1.000000000000000000 ) ) ;
#151 = ORIENTED_EDGE ( 'NONE', *, *, #144, .T. ) ;
#152 = CC_DESIGN_PERSON_AND_ORGANIZATION_ASSIGNMENT ( #332, #86, ( #312 ) ) ;
#153 = FACE_BOUND ( 'NONE', #234, .T. ) ;
#154 = ORIENTED_EDGE ( 'NONE', *, *, #341, .F. ) ;
#155 = DIRECTION ( 'NONE',  ( -3.491481338843133355E-15, 1.224646799147353207E-16, -1.000000000000000000 ) ) ;
#156 = AXIS2_PLACEMENT_3D ( 'NONE', #88, #14, #305 ) ;
#157 = EDGE_LOOP ( 'NONE', ( #225 ) ) ;
#158 = ADVANCED_FACE ( 'NONE', ( #96, #183 ), #311, .T. ) ;
#159 = DIRECTION ( 'NONE',  ( -3.491481338843133355E-15, 1.224646799147353207E-16, -1.000000000000000000 ) ) ;
#160 = CARTESIAN_POINT ( 'NONE',  ( 2.137183397710479182E-32, 0.7999999999999996003, 6.121136532892404794E-18 ) ) ;
#161 = PRODUCT_DEFINITION_FORMATION_WITH_SPECIFIED_SOURCE ( 'ANY', '', #312, .NOT_KNOWN. ) ;
#162 = CARTESIAN_POINT ( 'NONE',  ( 1.291848095371959341E-14, 0.7999999999999996003, 3.700000000000000178 ) ) ;
#163 = VERTEX_POINT ( 'NONE', #189 ) ;
#164 = APPLICATION_CONTEXT ( 'configuration controlled 3d designs of mechanical parts and assemblies' ) ;
#165 = CARTESIAN_POINT ( 'NONE',  ( 5.167392381487837366E-14, 2.949999999999999289, 14.80000000000000071 ) ) ;
#166 = MANIFOLD_SOLID_BREP ( 'Corps-Déplacer/Copier1[1]', #145 ) ;
#167 = CARTESIAN_POINT ( 'NONE',  ( 1.571166602479410325E-14, -5.510910596163089556E-16, 4.500000000000000888 ) ) ;
#168 = PERSON_AND_ORGANIZATION ( #339, #279 ) ;
#169 = FACE_OUTER_BOUND ( 'NONE', #218, .T. ) ;
#170 = DIRECTION ( 'NONE',  ( 3.491481338843133355E-15, -1.224646799147353207E-16, 1.000000000000000000 ) ) ;
#171 = FACE_BOUND ( 'NONE', #213, .T. ) ;
#172 = CARTESIAN_POINT ( 'NONE',  ( 8.379555213223518475E-15, -2.939152317953647106E-16, 2.399999999999999911 ) ) ;
#173 = DIRECTION ( 'NONE',  ( -4.275831445896958607E-31, -1.000000000000000000, -1.224646799147353207E-16 ) ) ;
#174 = MANIFOLD_SOLID_BREP ( 'Corps-Déplacer/Copier1[2]', #295 ) ;
#175 = AXIS2_PLACEMENT_3D ( 'NONE', #77, #322, #259 ) ;
#176 = PERSON_AND_ORGANIZATION ( #339, #279 ) ;
#177 = LOCAL_TIME ( 14, 56, 8.000000000000000000, #142 ) ;
#178 = CARTESIAN_POINT ( 'NONE',  ( 8.379555213223518475E-15, 5.999039130647424958E-33, 2.399999999999999911 ) ) ;
#179 = ADVANCED_FACE ( 'NONE', ( #153, #112 ), #306, .F. ) ;
#180 = CYLINDRICAL_SURFACE ( 'NONE', #309, 3.000000000000000000 ) ;
#181 = EDGE_LOOP ( 'NONE', ( #186 ) ) ;
#182 = FACE_OUTER_BOUND ( 'NONE', #20, .T. ) ;
#183 = FACE_OUTER_BOUND ( 'NONE', #104, .T. ) ;
#184 = APPROVAL ( #228, 'UNSPECIFIED' ) ;
#185 = AXIS2_PLACEMENT_3D ( 'NONE', #113, #327, #192 ) ;
#186 = ORIENTED_EDGE ( 'NONE', *, *, #275, .F. ) ;
#187 = DIRECTION ( 'NONE',  ( -3.491481338843133355E-15, 1.224646799147353207E-16, -1.000000000000000000 ) ) ;
#188 = CARTESIAN_POINT ( 'NONE',  ( 1.899365848330664293E-13, 2.999999999999995559, 54.39999999999999858 ) ) ;
#189 = CARTESIAN_POINT ( 'NONE',  ( 8.379555213223518475E-15, 0.7999999999999996003, 2.399999999999999911 ) ) ;
#190 = AXIS2_PLACEMENT_3D ( 'NONE', #178, #38, #1 ) ;
#191 = ADVANCED_FACE ( 'NONE', ( #171, #198 ), #281, .F. ) ;
#192 = DIRECTION ( 'NONE',  ( 0.0000000000000000000, 1.000000000000000000, 0.0000000000000000000 ) ) ;
#193 = DIRECTION ( 'NONE',  ( -3.491481338843133355E-15, 1.224646799147353207E-16, -1.000000000000000000 ) ) ;
#194 = VERTEX_POINT ( 'NONE', #188 ) ;
#195 = APPLICATION_PROTOCOL_DEFINITION ( 'international standard', 'config_control_design', 1994, #164 ) ;
#196 = CARTESIAN_POINT ( 'NONE',  ( 1.291848095371959341E-14, -4.531193156845206201E-16, 3.700000000000000178 ) ) ;
#197 = EDGE_CURVE ( 'NONE', #106, #106, #56, .T. ) ;
#198 = FACE_OUTER_BOUND ( 'NONE', #43, .T. ) ;
#199 = ORIENTED_EDGE ( 'NONE', *, *, #197, .T. ) ;
#200 = EDGE_CURVE ( 'NONE', #50, #50, #6, .T. ) ;
#201 = AXIS2_PLACEMENT_3D ( 'NONE', #196, #302, #63 ) ;
#202 = CARTESIAN_POINT ( 'NONE',  ( 4.199347119824069440E-14, -1.472932692375549069E-15, 12.02740817516578886 ) ) ;
#203 = DESIGN_CONTEXT ( 'detailed design', #164, 'design' ) ;
#204 = DIRECTION ( 'NONE',  ( 0.0000000000000000000, 1.000000000000000000, 0.0000000000000000000 ) ) ;
#205 = AXIS2_PLACEMENT_3D ( 'NONE', #318, #159, #204 ) ;
#206 = ORIENTED_EDGE ( 'NONE', *, *, #99, .T. ) ;
#207 = DIRECTION ( 'NONE',  ( 4.275831445896958607E-31, 1.000000000000000000, 1.224646799147353207E-16 ) ) ;
#208 = FACE_OUTER_BOUND ( 'NONE', #214, .T. ) ;
#209 = DATE_AND_TIME ( #126, #136 ) ;
#210 = FACE_OUTER_BOUND ( 'NONE', #221, .T. ) ;
#211 = CALENDAR_DATE ( 2021, 13, 12 ) ;
#212 = ORIENTED_EDGE ( 'NONE', *, *, #326, .T. ) ;
#213 = EDGE_LOOP ( 'NONE', ( #154 ) ) ;
#214 = EDGE_LOOP ( 'NONE', ( #298 ) ) ;
#215 = DIRECTION ( 'NONE',  ( 4.275831445896958607E-31, 1.000000000000000000, 1.224646799147353207E-16 ) ) ;
#216 =( GEOMETRIC_REPRESENTATION_CONTEXT ( 3 ) GLOBAL_UNCERTAINTY_ASSIGNED_CONTEXT ( ( #122 ) ) GLOBAL_UNIT_ASSIGNED_CONTEXT ( ( #27, #301, #80 ) ) REPRESENTATION_CONTEXT ( 'NONE', 'WORKASPACE' ) );
#217 = EDGE_LOOP ( 'NONE', ( #44 ) ) ;
#218 = EDGE_LOOP ( 'NONE', ( #151 ) ) ;
#219 = PRODUCT_DEFINITION_SHAPE ( 'NONE', 'NONE',  #23 ) ;
#220 = ADVANCED_FACE ( 'NONE', ( #123, #236 ), #321, .T. ) ;
#221 = EDGE_LOOP ( 'NONE', ( #79 ) ) ;
#222 = ORIENTED_EDGE ( 'NONE', *, *, #341, .T. ) ;
#223 = EDGE_CURVE ( 'NONE', #269, #269, #331, .T. ) ;
#224 = CARTESIAN_POINT ( 'NONE',  ( 1.571166602479410010E-14, -5.510910596163088569E-16, 4.500000000000000000 ) ) ;
#225 = ORIENTED_EDGE ( 'NONE', *, *, #72, .T. ) ;
#226 = COORDINATED_UNIVERSAL_TIME_OFFSET ( 1, 0, .AHEAD. ) ;
#227 = DIRECTION ( 'NONE',  ( 0.0000000000000000000, -1.000000000000000000, 0.0000000000000000000 ) ) ;
#228 = APPROVAL_STATUS ( 'not_yet_approved' ) ;
#229 = CIRCLE ( 'NONE', #19, 2.999999999999997335 ) ;
#230 = APPLICATION_CONTEXT ( 'configuration controlled 3d designs of mechanical parts and assemblies' ) ;
#231 = ADVANCED_FACE ( 'NONE', ( #274, #280 ), #291, .F. ) ;
#232 = CIRCLE ( 'NONE', #175, 0.7999999999999996003 ) ;
#233 = DIRECTION ( 'NONE',  ( -3.491481338843133355E-15, 1.224646799147353207E-16, -1.000000000000000000 ) ) ;
#234 = EDGE_LOOP ( 'NONE', ( #292 ) ) ;
#235 = ADVANCED_FACE ( 'NONE', ( #329, #30 ), #325, .T. ) ;
#236 = FACE_OUTER_BOUND ( 'NONE', #328, .T. ) ;
#237 = PLANE ( 'NONE',  #190 ) ;
#238 = CONICAL_SURFACE ( 'NONE', #185, 2.400000000000003020, 0.7853981633974450594 ) ;
#239 = AXIS2_PLACEMENT_3D ( 'NONE', #202, #170, #11 ) ;
#240 = ORIENTED_EDGE ( 'NONE', *, *, #200, .T. ) ;
#241 = CARTESIAN_POINT ( 'NONE',  ( 0.0000000000000000000, 0.0000000000000000000, 0.0000000000000000000 ) ) ;
#242 = PRODUCT_RELATED_PRODUCT_CATEGORY ( 'detail', '', ( #312 ) ) ;
#243 = DIRECTION ( 'NONE',  ( -3.491481338843133355E-15, 1.224646799147353207E-16, -1.000000000000000000 ) ) ;
#244 = EDGE_LOOP ( 'NONE', ( #199 ) ) ;
#245 = EDGE_CURVE ( 'NONE', #2, #2, #21, .T. ) ;
#246 = CARTESIAN_POINT ( 'NONE',  ( 1.571166602479410010E-14, 0.9253640596059529155, 4.500000000000000000 ) ) ;
#247 = CARTESIAN_POINT ( 'NONE',  ( 4.199347119824069440E-14, 2.949999999999999289, 12.02740817516578886 ) ) ;
#248 = DIRECTION ( 'NONE',  ( 1.000000000000000000, 0.0000000000000000000, 0.0000000000000000000 ) ) ;
#249 = DIRECTION ( 'NONE',  ( 4.275831445896958607E-31, 1.000000000000000000, 1.224646799147353207E-16 ) ) ;
#250 = ORIENTED_EDGE ( 'NONE', *, *, #72, .F. ) ;
#251 = AXIS2_PLACEMENT_3D ( 'NONE', #147, #90, #276 ) ;
#252 = FACE_BOUND ( 'NONE', #116, .T. ) ;
#253 = AXIS2_PLACEMENT_3D ( 'NONE', #149, #243, #215 ) ;
#254 = PERSON_AND_ORGANIZATION_ROLE ( 'design_supplier' ) ;
#255 = CC_DESIGN_SECURITY_CLASSIFICATION ( #10, ( #161 ) ) ;
#256 = PERSON_AND_ORGANIZATION ( #339, #279 ) ;
#257 = DIRECTION ( 'NONE',  ( 3.491481338843133355E-15, -1.224646799147353207E-16, 1.000000000000000000 ) ) ;
#258 = DIRECTION ( 'NONE',  ( 0.0000000000000000000, 1.000000000000000000, 0.0000000000000000000 ) ) ;
#259 = DIRECTION ( 'NONE',  ( 4.275831445896958607E-31, 1.000000000000000000, 1.224646799147353207E-16 ) ) ;
#260 = CALENDAR_DATE ( 2021, 13, 12 ) ;
#261 = APPROVAL_PERSON_ORGANIZATION ( #8, #184, #266 ) ;
#262 = CC_DESIGN_PERSON_AND_ORGANIZATION_ASSIGNMENT ( #168, #254, ( #161 ) ) ;
#263 = CARTESIAN_POINT ( 'NONE',  ( 0.0000000000000000000, 0.0000000000000000000, 0.0000000000000000000 ) ) ;
#264 = ORIENTED_EDGE ( 'NONE', *, *, #245, .T. ) ;
#265 = PERSON_AND_ORGANIZATION ( #339, #279 ) ;
#266 = APPROVAL_ROLE ( '' ) ;
#267 = CARTESIAN_POINT ( 'NONE',  ( 5.167392381487837366E-14, -1.812477262738082480E-15, 14.80000000000000071 ) ) ;
#268 = AXIS2_PLACEMENT_3D ( 'NONE', #172, #68, #258 ) ;
#269 = VERTEX_POINT ( 'NONE', #24 ) ;
#270 = CARTESIAN_POINT ( 'NONE',  ( 1.437032053095455983E-14, 0.8437047985323825605, 4.115823381635492773 ) ) ;
#271 = ORIENTED_EDGE ( 'NONE', *, *, #103, .T. ) ;
#272 = CARTESIAN_POINT ( 'NONE',  ( 1.899365848330664293E-13, -6.662078587361600895E-15, 54.39999999999999858 ) ) ;
#273 = ADVANCED_FACE ( 'NONE', ( #182 ), #319, .F. ) ;
#274 = FACE_OUTER_BOUND ( 'NONE', #244, .T. ) ;
#275 = EDGE_CURVE ( 'NONE', #54, #54, #229, .T. ) ;
#276 = DIRECTION ( 'NONE',  ( 4.331154975903749507E-31, 1.000000000000000000, 1.224646799147353207E-16 ) ) ;
#277 = PERSON_AND_ORGANIZATION_ROLE ( 'classification_officer' ) ;
#278 = AXIS2_PLACEMENT_3D ( 'NONE', #148, #233, #338 ) ;
#279 = ORGANIZATION ( 'UNSPECIFIED', 'UNSPECIFIED', '' ) ;
#280 = FACE_OUTER_BOUND ( 'NONE', #289, .T. ) ;
#281 = PLANE ( 'NONE',  #121 ) ;
#282 = PLANE ( 'NONE',  #78 ) ;
#283 = DATE_AND_TIME ( #22, #177 ) ;
#284 = EDGE_CURVE ( 'NONE', #111, #111, #300, .T. ) ;
#285 = APPROVAL_DATE_TIME ( #283, #184 ) ;
#286 = DATE_AND_TIME ( #260, #135 ) ;
#287 = AXIS2_PLACEMENT_3D ( 'NONE', #143, #91, #60 ) ;
#288 = CARTESIAN_POINT ( 'NONE',  ( 5.167392381487837366E-14, -1.812477262738082480E-15, 14.80000000000000071 ) ) ;
#289 = EDGE_LOOP ( 'NONE', ( #109 ) ) ;
#290 = CARTESIAN_POINT ( 'NONE',  ( 0.0000000000000000000, 0.0000000000000000000, 0.0000000000000000000 ) ) ;
#291 = TOROIDAL_SURFACE ( 'NONE', #251, 2.799999999999999822, 2.000000000000000000 ) ;
#292 = ORIENTED_EDGE ( 'NONE', *, *, #99, .F. ) ;
#293 = DIRECTION ( 'NONE',  ( -4.275831445896958607E-31, -1.000000000000000000, -1.224646799147353207E-16 ) ) ;
#294 = VERTEX_POINT ( 'NONE', #165 ) ;
#295 = CLOSED_SHELL ( 'NONE', ( #59, #33, #65 ) ) ;
#296 = CIRCLE ( 'NONE', #26, 2.950000000000001066 ) ;
#297 = CC_DESIGN_PERSON_AND_ORGANIZATION_ASSIGNMENT ( #176, #277, ( #10 ) ) ;
#298 = ORIENTED_EDGE ( 'NONE', *, *, #144, .F. ) ;
#299 = DIRECTION ( 'NONE',  ( 0.0000000000000000000, 1.000000000000000000, 0.0000000000000000000 ) ) ;
#300 = CIRCLE ( 'NONE', #268, 0.7999999999999999334 ) ;
#301 =( NAMED_UNIT ( * ) PLANE_ANGLE_UNIT ( ) SI_UNIT ( $, .RADIAN. ) );
#302 = DIRECTION ( 'NONE',  ( -3.491481338843133355E-15, 1.224646799147353207E-16, -1.000000000000000000 ) ) ;
#303 = CARTESIAN_POINT ( 'NONE',  ( 1.571166602479410325E-14, -8.915868007548224770E-32, 4.500000000000000888 ) ) ;
#304 = ADVANCED_FACE ( 'NONE', ( #16, #36 ), #180, .T. ) ;
#305 = DIRECTION ( 'NONE',  ( 0.0000000000000000000, 1.000000000000000000, 0.0000000000000000000 ) ) ;
#306 = PLANE ( 'NONE',  #18 ) ;
#307 = DATE_TIME_ROLE ( 'creation_date' ) ;
#308 = AXIS2_PLACEMENT_3D ( 'NONE', #224, #193, #299 ) ;
#309 = AXIS2_PLACEMENT_3D ( 'NONE', #241, #155, #97 ) ;
#310 = ORIENTED_EDGE ( 'NONE', *, *, #275, .T. ) ;
#311 = CYLINDRICAL_SURFACE ( 'NONE', #330, 2.950000000000001066 ) ;
#312 = PRODUCT ( '383393', '383393', '', ( #4 ) ) ;
#313 = CARTESIAN_POINT ( 'NONE',  ( -1.603473408473258747E-31, 5.624227617539897199E-33, -4.592530369944790370E-17 ) ) ;
#314 = CC_DESIGN_PERSON_AND_ORGANIZATION_ASSIGNMENT ( #35, #110, ( #23 ) ) ;
#315 = FACE_OUTER_BOUND ( 'NONE', #323, .T. ) ;
#316 = SHAPE_DEFINITION_REPRESENTATION ( #219, #81 ) ;
#317 = ORIENTED_EDGE ( 'NONE', *, *, #103, .F. ) ;
#318 = CARTESIAN_POINT ( 'NONE',  ( 8.379555213223518475E-15, -2.939152317953647106E-16, 2.399999999999999911 ) ) ;
#319 = PLANE ( 'NONE',  #253 ) ;
#320 = ADVANCED_FACE ( 'NONE', ( #208, #315 ), #69, .T. ) ;
#321 = CONICAL_SURFACE ( 'NONE', #37, 0.9253640596059534706, 0.2094395102393055708 ) ;
#322 = DIRECTION ( 'NONE',  ( -3.491481338843133355E-15, 1.224646799147353207E-16, -1.000000000000000000 ) ) ;
#323 = EDGE_LOOP ( 'NONE', ( #240 ) ) ;
#324 = ORIENTED_EDGE ( 'NONE', *, *, #284, .T. ) ;
#325 = CONICAL_SURFACE ( 'NONE', #239, 2.950000000000000622, 0.2094395102393125652 ) ;
#326 = EDGE_CURVE ( 'NONE', #194, #194, #85, .T. ) ;
#327 = DIRECTION ( 'NONE',  ( -3.491481338843133355E-15, 1.224646799147353207E-16, -1.000000000000000000 ) ) ;
#328 = EDGE_LOOP ( 'NONE', ( #206 ) ) ;
#329 = FACE_BOUND ( 'NONE', #48, .T. ) ;
#330 = AXIS2_PLACEMENT_3D ( 'NONE', #263, #100, #207 ) ;
#331 = CIRCLE ( 'NONE', #15, 1.350000000000000311 ) ;
#332 = PERSON_AND_ORGANIZATION ( #339, #279 ) ;
#333 = DIRECTION ( 'NONE',  ( -4.275831445896958607E-31, -1.000000000000000000, -1.224646799147353207E-16 ) ) ;
#334 = CARTESIAN_POINT ( 'NONE',  ( 1.571166602479410010E-14, -5.510910596163088569E-16, 4.500000000000000000 ) ) ;
#335 = CALENDAR_DATE ( 2021, 13, 12 ) ;
#336 = CC_DESIGN_APPROVAL ( #3, ( #161 ) ) ;
#337 = DIRECTION ( 'NONE',  ( -4.275831445896958607E-31, -1.000000000000000000, -1.224646799147353207E-16 ) ) ;
#338 = DIRECTION ( 'NONE',  ( 4.275831445896958607E-31, 1.000000000000000000, 1.224646799147353207E-16 ) ) ;
#339 = PERSON ( 'UNSPECIFIED', 'UNSPECIFIED', 'UNSPECIFIED', ('UNSPECIFIED'), ('UNSPECIFIED'), ('UNSPECIFIED') ) ;
#340 = PERSON_AND_ORGANIZATION_ROLE ( 'creator' ) ;
#341 = EDGE_CURVE ( 'NONE', #294, #294, #296, .T. ) ;
#342 = CARTESIAN_POINT ( 'NONE',  ( 8.379555213223518475E-15, 5.999039130647424958E-33, 2.399999999999999911 ) ) ;
#343 = EDGE_LOOP ( 'NONE', ( #212 ) ) ;
ENDSEC;
END-ISO-10303-21;
