ISO-10303-21;
HEADER;
FILE_DESCRIPTION (( 'STEP AP203' ),
    '1' );
FILE_NAME ('38317.step',
    '2021-10-07T13:47:53',
    ( '' ),
    ( '' ),
    'SwSTEP 2.0',
    'SolidWorks 2019',
    '' );
FILE_SCHEMA (( 'CONFIG_CONTROL_DESIGN' ));
ENDSEC;

DATA;
#1 = CC_DESIGN_PERSON_AND_ORGANIZATION_ASSIGNMENT ( #12, #78, ( #198 ) ) ;
#2 = DIRECTION ( 'NONE',  ( 0.0000000000000000000, 1.000000000000000000, 0.0000000000000000000 ) ) ;
#3 = CC_DESIGN_DATE_AND_TIME_ASSIGNMENT ( #26, #8, ( #209 ) ) ;
#4 = VERTEX_POINT ( 'NONE', #72 ) ;
#5 = ORIENTED_EDGE ( 'NONE', *, *, #66, .F. ) ;
#6 = LOCAL_TIME ( 15, 47, 53.00000000000000000, #197 ) ;
#7 = AXIS2_PLACEMENT_3D ( 'NONE', #181, #15, #168 ) ;
#8 = DATE_TIME_ROLE ( 'creation_date' ) ;
#9 = ADVANCED_FACE ( 'NONE', ( #64, #114 ), #136, .T. ) ;
#10 = VERTEX_POINT ( 'NONE', #144 ) ;
#11 = AXIS2_PLACEMENT_3D ( 'NONE', #65, #113, #205 ) ;
#12 = PERSON_AND_ORGANIZATION ( #120, #175 ) ;
#13 = EDGE_CURVE ( 'NONE', #4, #4, #41, .T. ) ;
#14 = FACE_OUTER_BOUND ( 'NONE', #79, .T. ) ;
#15 = DIRECTION ( 'NONE',  ( 3.491481338843133355E-15, -1.224646799147353207E-16, 1.000000000000000000 ) ) ;
#16 = CARTESIAN_POINT ( 'NONE',  ( 1.040461438975253866E-13, -3.649447461459112464E-15, 29.80000000000000426 ) ) ;
#17 = EDGE_LOOP ( 'NONE', ( #187 ) ) ;
#18 = APPROVAL_STATUS ( 'not_yet_approved' ) ;
#19 = MANIFOLD_SOLID_BREP ( 'Corps-Déplacer/Copier1[2]', #109 ) ;
#20 = FACE_OUTER_BOUND ( 'NONE', #35, .T. ) ;
#21 = AXIS2_PLACEMENT_3D ( 'NONE', #163, #148, #132 ) ;
#22 = COORDINATED_UNIVERSAL_TIME_OFFSET ( 1, 0, .AHEAD. ) ;
#23 = CIRCLE ( 'NONE', #51, 0.5499999999999990452 ) ;
#24 = APPROVAL_PERSON_ORGANIZATION ( #217, #173, #97 ) ;
#25 = DIRECTION ( 'NONE',  ( 1.000000000000000000, 0.0000000000000000000, 0.0000000000000000000 ) ) ;
#26 = DATE_AND_TIME ( #200, #70 ) ;
#27 =( NAMED_UNIT ( * ) PLANE_ANGLE_UNIT ( ) SI_UNIT ( $, .RADIAN. ) );
#28 = CC_DESIGN_APPROVAL ( #57, ( #198 ) ) ;
#29 = PERSON_AND_ORGANIZATION ( #120, #175 ) ;
#30 = AXIS2_PLACEMENT_3D ( 'NONE', #33, #202, #167 ) ;
#31 = CARTESIAN_POINT ( 'NONE',  ( 1.047444401652940007E-13, 4.124339402320045473E-33, 30.00000000000000000 ) ) ;
#32 = ADVANCED_BREP_SHAPE_REPRESENTATION ( '38317', ( #85, #19, #208 ), #179 ) ;
#33 = CARTESIAN_POINT ( 'NONE',  ( 2.199633243471174014E-14, -7.715274834628325378E-16, 6.299999999999999822 ) ) ;
#34 = CARTESIAN_POINT ( 'NONE',  ( 8.391574554321890600E-16, -2.943368135303213783E-17, 0.2403442476110255743 ) ) ;
#35 = EDGE_LOOP ( 'NONE', ( #174 ) ) ;
#36 = DIRECTION ( 'NONE',  ( -3.491481338843133355E-15, 1.224646799147353207E-16, -1.000000000000000000 ) ) ;
#37 = APPROVAL_PERSON_ORGANIZATION ( #68, #57, #154 ) ;
#38 = CC_DESIGN_DATE_AND_TIME_ASSIGNMENT ( #102, #86, ( #198 ) ) ;
#39 = AXIS2_PLACEMENT_3D ( 'NONE', #216, #84, #46 ) ;
#40 = EDGE_LOOP ( 'NONE', ( #101 ) ) ;
#41 = CIRCLE ( 'NONE', #89, 0.3999999999999981348 ) ;
#42 = SECURITY_CLASSIFICATION_LEVEL ( 'unclassified' ) ;
#43 = APPLICATION_PROTOCOL_DEFINITION ( 'international standard', 'config_control_design', 1994, #122 ) ;
#44 = VERTEX_POINT ( 'NONE', #158 ) ;
#45 = LOCAL_TIME ( 15, 47, 53.00000000000000000, #22 ) ;
#46 = DIRECTION ( 'NONE',  ( 0.0000000000000000000, 1.000000000000000000, 0.0000000000000000000 ) ) ;
#47 = FACE_OUTER_BOUND ( 'NONE', #40, .T. ) ;
#48 = SHAPE_DEFINITION_REPRESENTATION ( #164, #32 ) ;
#49 = EDGE_LOOP ( 'NONE', ( #88 ) ) ;
#50 = PRODUCT ( '38317', '38317', '', ( #61 ) ) ;
#51 = AXIS2_PLACEMENT_3D ( 'NONE', #69, #60, #117 ) ;
#52 = DIRECTION ( 'NONE',  ( 3.491481338843133355E-15, -1.224646799147353207E-16, 1.000000000000000000 ) ) ;
#53 = APPROVAL_DATE_TIME ( #169, #57 ) ;
#54 = DIRECTION ( 'NONE',  ( 4.275831445896958607E-31, 1.000000000000000000, 1.224646799147352961E-16 ) ) ;
#55 = CYLINDRICAL_SURFACE ( 'NONE', #172, 0.3999999999999982458 ) ;
#56 = LOCAL_TIME ( 15, 47, 53.00000000000000000, #159 ) ;
#57 = APPROVAL ( #18, 'UNSPECIFIED' ) ;
#58 =( NAMED_UNIT ( * ) SI_UNIT ( $, .STERADIAN. ) SOLID_ANGLE_UNIT ( ) );
#59 = CARTESIAN_POINT ( 'NONE',  ( 0.0000000000000000000, 0.0000000000000000000, 0.0000000000000000000 ) ) ;
#60 = DIRECTION ( 'NONE',  ( -3.491481338843133355E-15, 1.224646799147353207E-16, -1.000000000000000000 ) ) ;
#61 = MECHANICAL_CONTEXT ( 'NONE', #207, 'mechanical' ) ;
#62 = EDGE_LOOP ( 'NONE', ( #141 ) ) ;
#63 = EDGE_CURVE ( 'NONE', #44, #44, #81, .T. ) ;
#64 = FACE_OUTER_BOUND ( 'NONE', #118, .T. ) ;
#65 = CARTESIAN_POINT ( 'NONE',  ( 2.199633243471174014E-14, 2.999519565323691610E-33, 6.299999999999999822 ) ) ;
#66 = EDGE_CURVE ( 'NONE', #212, #212, #87, .T. ) ;
#67 = FACE_OUTER_BOUND ( 'NONE', #49, .T. ) ;
#68 = PERSON_AND_ORGANIZATION ( #120, #175 ) ;
#69 = CARTESIAN_POINT ( 'NONE',  ( 1.047444401652940007E-13, -3.673940397442059178E-15, 30.00000000000000000 ) ) ;
#70 = LOCAL_TIME ( 15, 47, 53.00000000000000000, #157 ) ;
#71 = ADVANCED_FACE ( 'NONE', ( #116, #199 ), #223, .T. ) ;
#72 = CARTESIAN_POINT ( 'NONE',  ( 8.391574554321892572E-16, 0.3999999999999980793, 0.2403442476110256298 ) ) ;
#73 = FACE_OUTER_BOUND ( 'NONE', #219, .T. ) ;
#74 = ADVANCED_FACE ( 'NONE', ( #20 ), #160, .T. ) ;
#75 = EDGE_LOOP ( 'NONE', ( #137 ) ) ;
#76 = PERSON_AND_ORGANIZATION_ROLE ( 'design_supplier' ) ;
#77 = CC_DESIGN_PERSON_AND_ORGANIZATION_ASSIGNMENT ( #180, #195, ( #50 ) ) ;
#78 = PERSON_AND_ORGANIZATION_ROLE ( 'classification_officer' ) ;
#79 = EDGE_LOOP ( 'NONE', ( #5 ) ) ;
#80 = EDGE_LOOP ( 'NONE', ( #151 ) ) ;
#81 = CIRCLE ( 'NONE', #30, 0.3999999999999983569 ) ;
#82 = DIRECTION ( 'NONE',  ( -3.491481338843133355E-15, 1.224646799147353207E-16, -1.000000000000000000 ) ) ;
#83 = CYLINDRICAL_SURFACE ( 'NONE', #218, 0.7499999999999983347 ) ;
#84 = DIRECTION ( 'NONE',  ( -3.491481338843133355E-15, 1.224646799147353207E-16, -1.000000000000000000 ) ) ;
#85 = MANIFOLD_SOLID_BREP ( 'Corps-Déplacer/Copier1[1]', #94 ) ;
#86 = DATE_TIME_ROLE ( 'classification_date' ) ;
#87 = CIRCLE ( 'NONE', #39, 0.7499999999999972244 ) ;
#88 = ORIENTED_EDGE ( 'NONE', *, *, #191, .F. ) ;
#89 = AXIS2_PLACEMENT_3D ( 'NONE', #34, #82, #162 ) ;
#90 = APPLICATION_PROTOCOL_DEFINITION ( 'international standard', 'config_control_design', 1994, #207 ) ;
#91 = PERSON_AND_ORGANIZATION ( #120, #175 ) ;
#92 = ADVANCED_FACE ( 'NONE', ( #14, #184 ), #83, .T. ) ;
#93 = DATE_AND_TIME ( #110, #6 ) ;
#94 = CLOSED_SHELL ( 'NONE', ( #153, #71, #92, #9, #165 ) ) ;
#95 = AXIS2_PLACEMENT_3D ( 'NONE', #133, #36, #183 ) ;
#96 = CARTESIAN_POINT ( 'NONE',  ( 2.411293051010598054E-14, 0.7499999999999963363, 6.906217782649113346 ) ) ;
#97 = APPROVAL_ROLE ( '' ) ;
#98 = CC_DESIGN_PERSON_AND_ORGANIZATION_ASSIGNMENT ( #29, #76, ( #108 ) ) ;
#99 = EDGE_LOOP ( 'NONE', ( #192 ) ) ;
#100 = FACE_OUTER_BOUND ( 'NONE', #99, .T. ) ;
#101 = ORIENTED_EDGE ( 'NONE', *, *, #63, .F. ) ;
#102 = DATE_AND_TIME ( #182, #45 ) ;
#103 = FACE_OUTER_BOUND ( 'NONE', #211, .T. ) ;
#104 = DIRECTION ( 'NONE',  ( -3.491481338843133355E-15, 1.224646799147353207E-16, -1.000000000000000000 ) ) ;
#105 = UNCERTAINTY_MEASURE_WITH_UNIT (LENGTH_MEASURE( 1.000000000000000082E-05 ), #146, 'distance_accuracy_value', 'NONE');
#106 = ORIENTED_EDGE ( 'NONE', *, *, #13, .F. ) ;
#107 = APPROVAL_STATUS ( 'not_yet_approved' ) ;
#108 = PRODUCT_DEFINITION_FORMATION_WITH_SPECIFIED_SOURCE ( 'ANY', '', #50, .NOT_KNOWN. ) ;
#109 = CLOSED_SHELL ( 'NONE', ( #74, #215, #119 ) ) ;
#110 = CALENDAR_DATE ( 2021, 7, 10 ) ;
#111 = APPROVAL_DATE_TIME ( #93, #173 ) ;
#112 = ORIENTED_EDGE ( 'NONE', *, *, #185, .F. ) ;
#113 = DIRECTION ( 'NONE',  ( 3.491481338843133355E-15, -1.224646799147353207E-16, 1.000000000000000000 ) ) ;
#114 = FACE_BOUND ( 'NONE', #17, .T. ) ;
#115 = AXIS2_PLACEMENT_3D ( 'NONE', #16, #220, #2 ) ;
#116 = FACE_BOUND ( 'NONE', #80, .T. ) ;
#117 = DIRECTION ( 'NONE',  ( 0.0000000000000000000, 1.000000000000000000, 0.0000000000000000000 ) ) ;
#118 = EDGE_LOOP ( 'NONE', ( #112 ) ) ;
#119 = ADVANCED_FACE ( 'NONE', ( #47 ), #130, .T. ) ;
#120 = PERSON ( 'UNSPECIFIED', 'UNSPECIFIED', 'UNSPECIFIED', ('UNSPECIFIED'), ('UNSPECIFIED'), ('UNSPECIFIED') ) ;
#121 = CARTESIAN_POINT ( 'NONE',  ( 0.0000000000000000000, 0.0000000000000000000, 0.0000000000000000000 ) ) ;
#122 = APPLICATION_CONTEXT ( 'configuration controlled 3d designs of mechanical parts and assemblies' ) ;
#123 = DESIGN_CONTEXT ( 'detailed design', #122, 'design' ) ;
#124 = CALENDAR_DATE ( 2021, 7, 10 ) ;
#125 = VERTEX_POINT ( 'NONE', #178 ) ;
#126 = PERSON_AND_ORGANIZATION_ROLE ( 'creator' ) ;
#127 = PRODUCT_RELATED_PRODUCT_CATEGORY ( 'detail', '', ( #50 ) ) ;
#128 = DATE_AND_TIME ( #124, #56 ) ;
#129 = CC_DESIGN_APPROVAL ( #173, ( #209 ) ) ;
#130 = PLANE ( 'NONE',  #11 ) ;
#131 = PERSON_AND_ORGANIZATION ( #120, #175 ) ;
#132 = DIRECTION ( 'NONE',  ( -4.814824860968112404E-31, -1.000000000000000000, -1.355252715606886952E-16 ) ) ;
#133 = CARTESIAN_POINT ( 'NONE',  ( 1.047444401652940007E-13, -3.673940397442059178E-15, 30.00000000000000000 ) ) ;
#134 = PLANE ( 'NONE',  #213 ) ;
#135 = CALENDAR_DATE ( 2021, 7, 10 ) ;
#136 = CONICAL_SURFACE ( 'NONE', #95, 0.5499999999999990452, 0.7853981633974604915 ) ;
#137 = ORIENTED_EDGE ( 'NONE', *, *, #66, .T. ) ;
#138 = CC_DESIGN_PERSON_AND_ORGANIZATION_ASSIGNMENT ( #131, #196, ( #209 ) ) ;
#139 = DIRECTION ( 'NONE',  ( -3.491481338843133355E-15, 1.224646799147353207E-16, -1.000000000000000000 ) ) ;
#140 = CIRCLE ( 'NONE', #204, 0.3999999999999983569 ) ;
#141 = ORIENTED_EDGE ( 'NONE', *, *, #185, .T. ) ;
#142 = VERTEX_POINT ( 'NONE', #143 ) ;
#143 = CARTESIAN_POINT ( 'NONE',  ( 2.199633243471174014E-14, 0.3999999999999975797, 6.299999999999999822 ) ) ;
#144 = CARTESIAN_POINT ( 'NONE',  ( 1.040461438975253866E-13, 0.7499999999999955591, 29.80000000000000426 ) ) ;
#145 = DIRECTION ( 'NONE',  ( -3.491481338843133355E-15, 1.224646799147353207E-16, -1.000000000000000000 ) ) ;
#146 =( LENGTH_UNIT ( ) NAMED_UNIT ( * ) SI_UNIT ( .MILLI., .METRE. ) );
#147 = ORIENTED_EDGE ( 'NONE', *, *, #63, .T. ) ;
#148 = DIRECTION ( 'NONE',  ( 3.491481338843133355E-15, -1.224646799147353207E-16, 1.000000000000000000 ) ) ;
#149 = CC_DESIGN_PERSON_AND_ORGANIZATION_ASSIGNMENT ( #91, #126, ( #108 ) ) ;
#150 = CARTESIAN_POINT ( 'NONE',  ( 2.199633243471174014E-14, 2.999519565323691610E-33, 6.299999999999999822 ) ) ;
#151 = ORIENTED_EDGE ( 'NONE', *, *, #222, .F. ) ;
#152 = APPROVAL_PERSON_ORGANIZATION ( #177, #189, #176 ) ;
#153 = ADVANCED_FACE ( 'NONE', ( #100 ), #134, .F. ) ;
#154 = APPROVAL_ROLE ( '' ) ;
#155 = CARTESIAN_POINT ( 'NONE',  ( 2.199633243471174014E-14, -7.715274834628325378E-16, 6.299999999999999822 ) ) ;
#156 = CC_DESIGN_SECURITY_CLASSIFICATION ( #198, ( #108 ) ) ;
#157 = COORDINATED_UNIVERSAL_TIME_OFFSET ( 1, 0, .AHEAD. ) ;
#158 = CARTESIAN_POINT ( 'NONE',  ( 2.199633243471174014E-14, 0.3999999999999975797, 6.299999999999999822 ) ) ;
#159 = COORDINATED_UNIVERSAL_TIME_OFFSET ( 1, 0, .AHEAD. ) ;
#160 = CONICAL_SURFACE ( 'NONE', #21, 0.3999999999999981348, 1.029744258676649871 ) ;
#161 = DIRECTION ( 'NONE',  ( 0.0000000000000000000, 0.0000000000000000000, 1.000000000000000000 ) ) ;
#162 = DIRECTION ( 'NONE',  ( 4.814824860968112404E-31, 1.000000000000000000, 1.355252715606886952E-16 ) ) ;
#163 = CARTESIAN_POINT ( 'NONE',  ( 8.391574554321890600E-16, -2.943368135303213783E-17, 0.2403442476110255743 ) ) ;
#164 = PRODUCT_DEFINITION_SHAPE ( 'NONE', 'NONE',  #209 ) ;
#165 = ADVANCED_FACE ( 'NONE', ( #67 ), #186, .F. ) ;
#166 = DIRECTION ( 'NONE',  ( 4.275831445896958607E-31, 1.000000000000000000, 1.224646799147353207E-16 ) ) ;
#167 = DIRECTION ( 'NONE',  ( 0.0000000000000000000, 1.000000000000000000, 0.0000000000000000000 ) ) ;
#168 = DIRECTION ( 'NONE',  ( 0.0000000000000000000, -1.000000000000000000, 0.0000000000000000000 ) ) ;
#169 = DATE_AND_TIME ( #135, #193 ) ;
#170 = AXIS2_PLACEMENT_3D ( 'NONE', #31, #145, #166 ) ;
#171 = DIRECTION ( 'NONE',  ( 0.0000000000000000000, 1.000000000000000000, 0.0000000000000000000 ) ) ;
#172 = AXIS2_PLACEMENT_3D ( 'NONE', #121, #139, #188 ) ;
#173 = APPROVAL ( #214, 'UNSPECIFIED' ) ;
#174 = ORIENTED_EDGE ( 'NONE', *, *, #13, .T. ) ;
#175 = ORGANIZATION ( 'UNSPECIFIED', 'UNSPECIFIED', '' ) ;
#176 = APPROVAL_ROLE ( '' ) ;
#177 = PERSON_AND_ORGANIZATION ( #120, #175 ) ;
#178 = CARTESIAN_POINT ( 'NONE',  ( 1.047444401652940007E-13, 0.5499999999999953815, 30.00000000000000000 ) ) ;
#179 =( GEOMETRIC_REPRESENTATION_CONTEXT ( 3 ) GLOBAL_UNCERTAINTY_ASSIGNED_CONTEXT ( ( #105 ) ) GLOBAL_UNIT_ASSIGNED_CONTEXT ( ( #146, #27, #58 ) ) REPRESENTATION_CONTEXT ( 'NONE', 'WORKASPACE' ) );
#180 = PERSON_AND_ORGANIZATION ( #120, #175 ) ;
#181 = CARTESIAN_POINT ( 'NONE',  ( 2.411293051010598054E-14, -8.457677501735767589E-16, 6.906217782649113346 ) ) ;
#182 = CALENDAR_DATE ( 2021, 7, 10 ) ;
#183 = DIRECTION ( 'NONE',  ( 0.0000000000000000000, 1.000000000000000000, 0.0000000000000000000 ) ) ;
#184 = FACE_OUTER_BOUND ( 'NONE', #62, .T. ) ;
#185 = EDGE_CURVE ( 'NONE', #10, #10, #190, .T. ) ;
#186 = PLANE ( 'NONE',  #170 ) ;
#187 = ORIENTED_EDGE ( 'NONE', *, *, #191, .T. ) ;
#188 = DIRECTION ( 'NONE',  ( 4.275831445896958607E-31, 1.000000000000000000, 1.224646799147353207E-16 ) ) ;
#189 = APPROVAL ( #107, 'UNSPECIFIED' ) ;
#190 = CIRCLE ( 'NONE', #115, 0.7499999999999992228 ) ;
#191 = EDGE_CURVE ( 'NONE', #125, #125, #23, .T. ) ;
#192 = ORIENTED_EDGE ( 'NONE', *, *, #222, .T. ) ;
#193 = LOCAL_TIME ( 15, 47, 53.00000000000000000, #203 ) ;
#194 = APPROVAL_DATE_TIME ( #128, #189 ) ;
#195 = PERSON_AND_ORGANIZATION_ROLE ( 'design_owner' ) ;
#196 = PERSON_AND_ORGANIZATION_ROLE ( 'creator' ) ;
#197 = COORDINATED_UNIVERSAL_TIME_OFFSET ( 1, 0, .AHEAD. ) ;
#198 = SECURITY_CLASSIFICATION ( '', '', #42 ) ;
#199 = FACE_OUTER_BOUND ( 'NONE', #75, .T. ) ;
#200 = CALENDAR_DATE ( 2021, 7, 10 ) ;
#201 = CARTESIAN_POINT ( 'NONE',  ( 0.0000000000000000000, 0.0000000000000000000, 0.0000000000000000000 ) ) ;
#202 = DIRECTION ( 'NONE',  ( -3.491481338843133355E-15, 1.224646799147353207E-16, -1.000000000000000000 ) ) ;
#203 = COORDINATED_UNIVERSAL_TIME_OFFSET ( 1, 0, .AHEAD. ) ;
#204 = AXIS2_PLACEMENT_3D ( 'NONE', #155, #104, #171 ) ;
#205 = DIRECTION ( 'NONE',  ( -4.275831445896958607E-31, -1.000000000000000000, -1.224646799147353207E-16 ) ) ;
#206 = DIRECTION ( 'NONE',  ( -4.275831445896958607E-31, -1.000000000000000000, -1.224646799147353207E-16 ) ) ;
#207 = APPLICATION_CONTEXT ( 'configuration controlled 3d designs of mechanical parts and assemblies' ) ;
#208 = AXIS2_PLACEMENT_3D ( 'NONE', #59, #161, #25 ) ;
#209 = PRODUCT_DEFINITION ( 'UNKNOWN', '', #108, #123 ) ;
#210 = CC_DESIGN_APPROVAL ( #189, ( #108 ) ) ;
#211 = EDGE_LOOP ( 'NONE', ( #106 ) ) ;
#212 = VERTEX_POINT ( 'NONE', #96 ) ;
#213 = AXIS2_PLACEMENT_3D ( 'NONE', #150, #52, #206 ) ;
#214 = APPROVAL_STATUS ( 'not_yet_approved' ) ;
#215 = ADVANCED_FACE ( 'NONE', ( #103, #73 ), #55, .T. ) ;
#216 = CARTESIAN_POINT ( 'NONE',  ( 2.411293051010598054E-14, -8.457677501735767589E-16, 6.906217782649113346 ) ) ;
#217 = PERSON_AND_ORGANIZATION ( #120, #175 ) ;
#218 = AXIS2_PLACEMENT_3D ( 'NONE', #201, #221, #54 ) ;
#219 = EDGE_LOOP ( 'NONE', ( #147 ) ) ;
#220 = DIRECTION ( 'NONE',  ( -3.491481338843133355E-15, 1.224646799147353207E-16, -1.000000000000000000 ) ) ;
#221 = DIRECTION ( 'NONE',  ( -3.491481338843133355E-15, 1.224646799147353207E-16, -1.000000000000000000 ) ) ;
#222 = EDGE_CURVE ( 'NONE', #142, #142, #140, .T. ) ;
#223 = CONICAL_SURFACE ( 'NONE', #7, 0.7499999999999972244, 0.5235987755982931535 ) ;
ENDSEC;
END-ISO-10303-21;
