ISO-10303-21;
HEADER;
FILE_DESCRIPTION (( 'STEP AP203' ),
    '1' );
FILE_NAME ('38296.step',
    '2021-10-07T13:47:53',
    ( '' ),
    ( '' ),
    'SwSTEP 2.0',
    'SolidWorks 2019',
    '' );
FILE_SCHEMA (( 'CONFIG_CONTROL_DESIGN' ));
ENDSEC;

DATA;
#1 = CARTESIAN_POINT ( 'NONE',  ( 1.006988946518626872E-15, -3.532041762363856293E-17, 0.2884130971332306559 ) ) ;
#2 = CARTESIAN_POINT ( 'NONE',  ( 1.047444401652940007E-13, -3.673940397442059178E-15, 30.00000000000000000 ) ) ;
#3 = CIRCLE ( 'NONE', #123, 0.4799999999999977063 ) ;
#4 = FACE_BOUND ( 'NONE', #201, .T. ) ;
#5 = CARTESIAN_POINT ( 'NONE',  ( 2.956465494033490656E-14, -1.036988502209028051E-15, 8.467653718043600009 ) ) ;
#6 = ADVANCED_BREP_SHAPE_REPRESENTATION ( '38296', ( #18, #163, #193 ), #155 ) ;
#7 = CLOSED_SHELL ( 'NONE', ( #188, #212, #10, #112, #47 ) ) ;
#8 = LOCAL_TIME ( 15, 47, 53.00000000000000000, #178 ) ;
#9 = CALENDAR_DATE ( 2021, 7, 10 ) ;
#10 = ADVANCED_FACE ( 'NONE', ( #77, #222 ), #68, .T. ) ;
#11 = COORDINATED_UNIVERSAL_TIME_OFFSET ( 1, 0, .AHEAD. ) ;
#12 = PRODUCT_RELATED_PRODUCT_CATEGORY ( 'detail', '', ( #110 ) ) ;
#13 = APPROVAL_DATE_TIME ( #48, #133 ) ;
#14 = AXIS2_PLACEMENT_3D ( 'NONE', #87, #74, #205 ) ;
#15 = ORIENTED_EDGE ( 'NONE', *, *, #161, .F. ) ;
#16 = APPROVAL_DATE_TIME ( #117, #86 ) ;
#17 = ORIENTED_EDGE ( 'NONE', *, *, #196, .T. ) ;
#18 = MANIFOLD_SOLID_BREP ( 'Corps-Déplacer/Copier1[1]', #7 ) ;
#19 = LOCAL_TIME ( 15, 47, 53.00000000000000000, #203 ) ;
#20 = CYLINDRICAL_SURFACE ( 'NONE', #130, 0.4799999999999979838 ) ;
#21 = CARTESIAN_POINT ( 'NONE',  ( 1.040461438975253866E-13, 0.7499999999999955591, 29.80000000000000426 ) ) ;
#22 = DIRECTION ( 'NONE',  ( 0.0000000000000000000, 1.000000000000000000, 0.0000000000000000000 ) ) ;
#23 = CIRCLE ( 'NONE', #143, 0.7499999999999992228 ) ;
#24 = AXIS2_PLACEMENT_3D ( 'NONE', #152, #128, #22 ) ;
#25 = FACE_OUTER_BOUND ( 'NONE', #121, .T. ) ;
#26 = MECHANICAL_CONTEXT ( 'NONE', #41, 'mechanical' ) ;
#27 = AXIS2_PLACEMENT_3D ( 'NONE', #51, #185, #37 ) ;
#28 = DIRECTION ( 'NONE',  ( 0.0000000000000000000, 0.0000000000000000000, 1.000000000000000000 ) ) ;
#29 = PERSON_AND_ORGANIZATION_ROLE ( 'creator' ) ;
#30 = CC_DESIGN_APPROVAL ( #133, ( #150 ) ) ;
#31 = CC_DESIGN_DATE_AND_TIME_ASSIGNMENT ( #50, #169, ( #141 ) ) ;
#32 = AXIS2_PLACEMENT_3D ( 'NONE', #191, #176, #208 ) ;
#33 = CALENDAR_DATE ( 2021, 7, 10 ) ;
#34 = ADVANCED_FACE ( 'NONE', ( #57, #125 ), #20, .T. ) ;
#35 = ORIENTED_EDGE ( 'NONE', *, *, #161, .T. ) ;
#36 = CALENDAR_DATE ( 2021, 7, 10 ) ;
#37 = DIRECTION ( 'NONE',  ( 4.275831445896958607E-31, 1.000000000000000000, 1.224646799147352961E-16 ) ) ;
#38 = SHAPE_DEFINITION_REPRESENTATION ( #177, #6 ) ;
#39 = PLANE ( 'NONE',  #182 ) ;
#40 = VERTEX_POINT ( 'NONE', #195 ) ;
#41 = APPLICATION_CONTEXT ( 'configuration controlled 3d designs of mechanical parts and assemblies' ) ;
#42 = FACE_OUTER_BOUND ( 'NONE', #147, .T. ) ;
#43 = DIRECTION ( 'NONE',  ( 4.012354050806760920E-31, 1.000000000000000000, 1.129377263005739291E-16 ) ) ;
#44 = LOCAL_TIME ( 15, 47, 53.00000000000000000, #46 ) ;
#45 = DIRECTION ( 'NONE',  ( 0.0000000000000000000, 1.000000000000000000, 0.0000000000000000000 ) ) ;
#46 = COORDINATED_UNIVERSAL_TIME_OFFSET ( 1, 0, .AHEAD. ) ;
#47 = ADVANCED_FACE ( 'NONE', ( #85 ), #69, .F. ) ;
#48 = DATE_AND_TIME ( #99, #164 ) ;
#49 = PERSON_AND_ORGANIZATION_ROLE ( 'design_supplier' ) ;
#50 = DATE_AND_TIME ( #158, #8 ) ;
#51 = CARTESIAN_POINT ( 'NONE',  ( 0.0000000000000000000, 0.0000000000000000000, 0.0000000000000000000 ) ) ;
#52 = CARTESIAN_POINT ( 'NONE',  ( 1.006988946518626872E-15, -3.532041762363856293E-17, 0.2884130971332306559 ) ) ;
#53 = CC_DESIGN_SECURITY_CLASSIFICATION ( #60, ( #150 ) ) ;
#54 = FACE_BOUND ( 'NONE', #202, .T. ) ;
#55 = APPLICATION_CONTEXT ( 'configuration controlled 3d designs of mechanical parts and assemblies' ) ;
#56 = DESIGN_CONTEXT ( 'detailed design', #55, 'design' ) ;
#57 = FACE_OUTER_BOUND ( 'NONE', #166, .T. ) ;
#58 = DIRECTION ( 'NONE',  ( -4.275831445896958607E-31, -1.000000000000000000, -1.224646799147353207E-16 ) ) ;
#59 = VERTEX_POINT ( 'NONE', #103 ) ;
#60 = SECURITY_CLASSIFICATION ( '', '', #94 ) ;
#61 = APPLICATION_PROTOCOL_DEFINITION ( 'international standard', 'config_control_design', 1994, #41 ) ;
#62 =( LENGTH_UNIT ( ) NAMED_UNIT ( * ) SI_UNIT ( .MILLI., .METRE. ) );
#63 = CARTESIAN_POINT ( 'NONE',  ( 0.0000000000000000000, 0.0000000000000000000, 0.0000000000000000000 ) ) ;
#64 = EDGE_LOOP ( 'NONE', ( #100 ) ) ;
#65 = PERSON_AND_ORGANIZATION ( #197, #211 ) ;
#66 = CC_DESIGN_PERSON_AND_ORGANIZATION_ASSIGNMENT ( #132, #49, ( #150 ) ) ;
#67 = AXIS2_PLACEMENT_3D ( 'NONE', #5, #106, #194 ) ;
#68 = CYLINDRICAL_SURFACE ( 'NONE', #27, 0.7499999999999983347 ) ;
#69 = PLANE ( 'NONE',  #214 ) ;
#70 = EDGE_CURVE ( 'NONE', #59, #59, #72, .T. ) ;
#71 = CARTESIAN_POINT ( 'NONE',  ( 2.793185071074506684E-14, 3.599423478388430479E-33, 8.000000000000000000 ) ) ;
#72 = CIRCLE ( 'NONE', #32, 0.5499999999999990452 ) ;
#73 = DIRECTION ( 'NONE',  ( -3.491481338843133355E-15, 1.224646799147353207E-16, -1.000000000000000000 ) ) ;
#74 = DIRECTION ( 'NONE',  ( 3.491481338843133355E-15, -1.224646799147353207E-16, 1.000000000000000000 ) ) ;
#75 =( NAMED_UNIT ( * ) SI_UNIT ( $, .STERADIAN. ) SOLID_ANGLE_UNIT ( ) );
#76 = PERSON_AND_ORGANIZATION ( #197, #211 ) ;
#77 = FACE_OUTER_BOUND ( 'NONE', #79, .T. ) ;
#78 = APPROVAL_STATUS ( 'not_yet_approved' ) ;
#79 = EDGE_LOOP ( 'NONE', ( #219 ) ) ;
#80 = DIRECTION ( 'NONE',  ( 3.491481338843133355E-15, -1.224646799147353207E-16, 1.000000000000000000 ) ) ;
#81 = ADVANCED_FACE ( 'NONE', ( #42 ), #39, .T. ) ;
#82 = VERTEX_POINT ( 'NONE', #136 ) ;
#83 = PLANE ( 'NONE',  #206 ) ;
#84 = AXIS2_PLACEMENT_3D ( 'NONE', #1, #105, #138 ) ;
#85 = FACE_OUTER_BOUND ( 'NONE', #64, .T. ) ;
#86 = APPROVAL ( #186, 'UNSPECIFIED' ) ;
#87 = CARTESIAN_POINT ( 'NONE',  ( 2.956465494033490656E-14, -1.036988502209028051E-15, 8.467653718043600009 ) ) ;
#88 = PERSON_AND_ORGANIZATION ( #197, #211 ) ;
#89 = APPROVAL_STATUS ( 'not_yet_approved' ) ;
#90 = CC_DESIGN_APPROVAL ( #86, ( #60 ) ) ;
#91 = APPLICATION_PROTOCOL_DEFINITION ( 'international standard', 'config_control_design', 1994, #55 ) ;
#92 = CONICAL_SURFACE ( 'NONE', #14, 0.7499999999999974465, 0.5235987755982940417 ) ;
#93 = EDGE_LOOP ( 'NONE', ( #35 ) ) ;
#94 = SECURITY_CLASSIFICATION_LEVEL ( 'unclassified' ) ;
#95 = CIRCLE ( 'NONE', #24, 0.4799999999999983169 ) ;
#96 = ORIENTED_EDGE ( 'NONE', *, *, #216, .F. ) ;
#97 = PERSON_AND_ORGANIZATION ( #197, #211 ) ;
#98 = ORIENTED_EDGE ( 'NONE', *, *, #70, .T. ) ;
#99 = CALENDAR_DATE ( 2021, 7, 10 ) ;
#100 = ORIENTED_EDGE ( 'NONE', *, *, #70, .F. ) ;
#101 = AXIS2_PLACEMENT_3D ( 'NONE', #151, #139, #122 ) ;
#102 = CC_DESIGN_DATE_AND_TIME_ASSIGNMENT ( #116, #184, ( #60 ) ) ;
#103 = CARTESIAN_POINT ( 'NONE',  ( 1.047444401652940007E-13, 0.5499999999999953815, 30.00000000000000000 ) ) ;
#104 = DIRECTION ( 'NONE',  ( 4.275831445896958607E-31, 1.000000000000000000, 1.224646799147353207E-16 ) ) ;
#105 = DIRECTION ( 'NONE',  ( 3.491481338843133355E-15, -1.224646799147353207E-16, 1.000000000000000000 ) ) ;
#106 = DIRECTION ( 'NONE',  ( -3.491481338843133355E-15, 1.224646799147353207E-16, -1.000000000000000000 ) ) ;
#107 = FACE_OUTER_BOUND ( 'NONE', #93, .T. ) ;
#108 = PERSON_AND_ORGANIZATION_ROLE ( 'design_owner' ) ;
#109 = EDGE_CURVE ( 'NONE', #173, #173, #23, .T. ) ;
#110 = PRODUCT ( '38296', '38296', '', ( #26 ) ) ;
#111 = DIRECTION ( 'NONE',  ( 1.000000000000000000, 0.0000000000000000000, 0.0000000000000000000 ) ) ;
#112 = ADVANCED_FACE ( 'NONE', ( #127, #4 ), #221, .T. ) ;
#113 = CC_DESIGN_PERSON_AND_ORGANIZATION_ASSIGNMENT ( #88, #29, ( #141 ) ) ;
#114 = APPROVAL_PERSON_ORGANIZATION ( #97, #86, #181 ) ;
#115 = ORIENTED_EDGE ( 'NONE', *, *, #109, .F. ) ;
#116 = DATE_AND_TIME ( #33, #19 ) ;
#117 = DATE_AND_TIME ( #36, #140 ) ;
#118 = CC_DESIGN_PERSON_AND_ORGANIZATION_ASSIGNMENT ( #76, #108, ( #110 ) ) ;
#119 = PERSON_AND_ORGANIZATION_ROLE ( 'creator' ) ;
#120 = PERSON_AND_ORGANIZATION ( #197, #211 ) ;
#121 = EDGE_LOOP ( 'NONE', ( #17 ) ) ;
#122 = DIRECTION ( 'NONE',  ( 0.0000000000000000000, 1.000000000000000000, 0.0000000000000000000 ) ) ;
#123 = AXIS2_PLACEMENT_3D ( 'NONE', #52, #192, #43 ) ;
#124 = VERTEX_POINT ( 'NONE', #190 ) ;
#125 = FACE_OUTER_BOUND ( 'NONE', #218, .T. ) ;
#126 = UNCERTAINTY_MEASURE_WITH_UNIT (LENGTH_MEASURE( 1.000000000000000082E-05 ), #62, 'distance_accuracy_value', 'NONE');
#127 = FACE_OUTER_BOUND ( 'NONE', #148, .T. ) ;
#128 = DIRECTION ( 'NONE',  ( -3.491481338843133355E-15, 1.224646799147353207E-16, -1.000000000000000000 ) ) ;
#129 =( NAMED_UNIT ( * ) PLANE_ANGLE_UNIT ( ) SI_UNIT ( $, .RADIAN. ) );
#130 = AXIS2_PLACEMENT_3D ( 'NONE', #137, #135, #223 ) ;
#131 = PERSON_AND_ORGANIZATION ( #197, #211 ) ;
#132 = PERSON_AND_ORGANIZATION ( #197, #211 ) ;
#133 = APPROVAL ( #78, 'UNSPECIFIED' ) ;
#134 = APPROVAL_ROLE ( '' ) ;
#135 = DIRECTION ( 'NONE',  ( -3.491481338843133355E-15, 1.224646799147353207E-16, -1.000000000000000000 ) ) ;
#136 = CARTESIAN_POINT ( 'NONE',  ( 2.793185071074506684E-14, 0.4799999999999973732, 8.000000000000000000 ) ) ;
#137 = CARTESIAN_POINT ( 'NONE',  ( 0.0000000000000000000, 0.0000000000000000000, 0.0000000000000000000 ) ) ;
#138 = DIRECTION ( 'NONE',  ( -4.012354050806760920E-31, -1.000000000000000000, -1.129377263005739291E-16 ) ) ;
#139 = DIRECTION ( 'NONE',  ( -3.491481338843133355E-15, 1.224646799147353207E-16, -1.000000000000000000 ) ) ;
#140 = LOCAL_TIME ( 15, 47, 53.00000000000000000, #200 ) ;
#141 = PRODUCT_DEFINITION ( 'UNKNOWN', '', #150, #56 ) ;
#142 = APPROVAL_DATE_TIME ( #180, #149 ) ;
#143 = AXIS2_PLACEMENT_3D ( 'NONE', #174, #210, #45 ) ;
#144 = CC_DESIGN_APPROVAL ( #149, ( #141 ) ) ;
#145 = APPROVAL_PERSON_ORGANIZATION ( #131, #149, #160 ) ;
#146 = EDGE_LOOP ( 'NONE', ( #167 ) ) ;
#147 = EDGE_LOOP ( 'NONE', ( #96 ) ) ;
#148 = EDGE_LOOP ( 'NONE', ( #115 ) ) ;
#149 = APPROVAL ( #89, 'UNSPECIFIED' ) ;
#150 = PRODUCT_DEFINITION_FORMATION_WITH_SPECIFIED_SOURCE ( 'ANY', '', #110, .NOT_KNOWN. ) ;
#151 = CARTESIAN_POINT ( 'NONE',  ( 2.793185071074506684E-14, -9.797174393178825657E-16, 8.000000000000000000 ) ) ;
#152 = CARTESIAN_POINT ( 'NONE',  ( 2.793185071074506684E-14, -9.797174393178825657E-16, 8.000000000000000000 ) ) ;
#153 = ADVANCED_FACE ( 'NONE', ( #204 ), #159, .T. ) ;
#154 = DIRECTION ( 'NONE',  ( -4.275831445896958607E-31, -1.000000000000000000, -1.224646799147353207E-16 ) ) ;
#155 =( GEOMETRIC_REPRESENTATION_CONTEXT ( 3 ) GLOBAL_UNCERTAINTY_ASSIGNED_CONTEXT ( ( #126 ) ) GLOBAL_UNIT_ASSIGNED_CONTEXT ( ( #62, #129, #75 ) ) REPRESENTATION_CONTEXT ( 'NONE', 'WORKASPACE' ) );
#156 = CARTESIAN_POINT ( 'NONE',  ( 2.793185071074506684E-14, 3.599423478388430479E-33, 8.000000000000000000 ) ) ;
#157 = DIRECTION ( 'NONE',  ( 3.491481338843133355E-15, -1.224646799147353207E-16, 1.000000000000000000 ) ) ;
#158 = CALENDAR_DATE ( 2021, 7, 10 ) ;
#159 = CONICAL_SURFACE ( 'NONE', #84, 0.4799999999999977063, 1.029744258676649871 ) ;
#160 = APPROVAL_ROLE ( '' ) ;
#161 = EDGE_CURVE ( 'NONE', #82, #82, #95, .T. ) ;
#162 = VERTEX_POINT ( 'NONE', #213 ) ;
#163 = MANIFOLD_SOLID_BREP ( 'Corps-Déplacer/Copier1[2]', #172 ) ;
#164 = LOCAL_TIME ( 15, 47, 53.00000000000000000, #11 ) ;
#165 = PERSON_AND_ORGANIZATION ( #197, #211 ) ;
#166 = EDGE_LOOP ( 'NONE', ( #168 ) ) ;
#167 = ORIENTED_EDGE ( 'NONE', *, *, #179, .T. ) ;
#168 = ORIENTED_EDGE ( 'NONE', *, *, #179, .F. ) ;
#169 = DATE_TIME_ROLE ( 'creation_date' ) ;
#170 = CC_DESIGN_PERSON_AND_ORGANIZATION_ASSIGNMENT ( #165, #220, ( #60 ) ) ;
#171 = ORIENTED_EDGE ( 'NONE', *, *, #109, .T. ) ;
#172 = CLOSED_SHELL ( 'NONE', ( #153, #34, #81 ) ) ;
#173 = VERTEX_POINT ( 'NONE', #21 ) ;
#174 = CARTESIAN_POINT ( 'NONE',  ( 1.040461438975253866E-13, -3.649447461459112464E-15, 29.80000000000000426 ) ) ;
#175 = DIRECTION ( 'NONE',  ( 0.0000000000000000000, 1.000000000000000000, 0.0000000000000000000 ) ) ;
#176 = DIRECTION ( 'NONE',  ( -3.491481338843133355E-15, 1.224646799147353207E-16, -1.000000000000000000 ) ) ;
#177 = PRODUCT_DEFINITION_SHAPE ( 'NONE', 'NONE',  #141 ) ;
#178 = COORDINATED_UNIVERSAL_TIME_OFFSET ( 1, 0, .AHEAD. ) ;
#179 = EDGE_CURVE ( 'NONE', #124, #124, #3, .T. ) ;
#180 = DATE_AND_TIME ( #9, #44 ) ;
#181 = APPROVAL_ROLE ( '' ) ;
#182 = AXIS2_PLACEMENT_3D ( 'NONE', #156, #157, #58 ) ;
#183 = EDGE_LOOP ( 'NONE', ( #171 ) ) ;
#184 = DATE_TIME_ROLE ( 'classification_date' ) ;
#185 = DIRECTION ( 'NONE',  ( -3.491481338843133355E-15, 1.224646799147353207E-16, -1.000000000000000000 ) ) ;
#186 = APPROVAL_STATUS ( 'not_yet_approved' ) ;
#187 = CARTESIAN_POINT ( 'NONE',  ( 1.047444401652940007E-13, 4.124339402320045473E-33, 30.00000000000000000 ) ) ;
#188 = ADVANCED_FACE ( 'NONE', ( #107 ), #83, .F. ) ;
#189 = AXIS2_PLACEMENT_3D ( 'NONE', #2, #207, #175 ) ;
#190 = CARTESIAN_POINT ( 'NONE',  ( 1.006988946518627069E-15, 0.4799999999999976508, 0.2884130971332307114 ) ) ;
#191 = CARTESIAN_POINT ( 'NONE',  ( 1.047444401652940007E-13, -3.673940397442059178E-15, 30.00000000000000000 ) ) ;
#192 = DIRECTION ( 'NONE',  ( -3.491481338843133355E-15, 1.224646799147353207E-16, -1.000000000000000000 ) ) ;
#193 = AXIS2_PLACEMENT_3D ( 'NONE', #63, #28, #111 ) ;
#194 = DIRECTION ( 'NONE',  ( 0.0000000000000000000, 1.000000000000000000, 0.0000000000000000000 ) ) ;
#195 = CARTESIAN_POINT ( 'NONE',  ( 2.956465494033490656E-14, 0.7499999999999963363, 8.467653718043600009 ) ) ;
#196 = EDGE_CURVE ( 'NONE', #40, #40, #198, .T. ) ;
#197 = PERSON ( 'UNSPECIFIED', 'UNSPECIFIED', 'UNSPECIFIED', ('UNSPECIFIED'), ('UNSPECIFIED'), ('UNSPECIFIED') ) ;
#198 = CIRCLE ( 'NONE', #67, 0.7499999999999974465 ) ;
#199 = ORIENTED_EDGE ( 'NONE', *, *, #216, .T. ) ;
#200 = COORDINATED_UNIVERSAL_TIME_OFFSET ( 1, 0, .AHEAD. ) ;
#201 = EDGE_LOOP ( 'NONE', ( #98 ) ) ;
#202 = EDGE_LOOP ( 'NONE', ( #15 ) ) ;
#203 = COORDINATED_UNIVERSAL_TIME_OFFSET ( 1, 0, .AHEAD. ) ;
#204 = FACE_OUTER_BOUND ( 'NONE', #146, .T. ) ;
#205 = DIRECTION ( 'NONE',  ( 0.0000000000000000000, -1.000000000000000000, 0.0000000000000000000 ) ) ;
#206 = AXIS2_PLACEMENT_3D ( 'NONE', #71, #80, #154 ) ;
#207 = DIRECTION ( 'NONE',  ( -3.491481338843133355E-15, 1.224646799147353207E-16, -1.000000000000000000 ) ) ;
#208 = DIRECTION ( 'NONE',  ( 0.0000000000000000000, 1.000000000000000000, 0.0000000000000000000 ) ) ;
#209 = CC_DESIGN_PERSON_AND_ORGANIZATION_ASSIGNMENT ( #65, #119, ( #150 ) ) ;
#210 = DIRECTION ( 'NONE',  ( -3.491481338843133355E-15, 1.224646799147353207E-16, -1.000000000000000000 ) ) ;
#211 = ORGANIZATION ( 'UNSPECIFIED', 'UNSPECIFIED', '' ) ;
#212 = ADVANCED_FACE ( 'NONE', ( #54, #25 ), #92, .T. ) ;
#213 = CARTESIAN_POINT ( 'NONE',  ( 2.793185071074506684E-14, 0.4799999999999973732, 8.000000000000000000 ) ) ;
#214 = AXIS2_PLACEMENT_3D ( 'NONE', #187, #73, #104 ) ;
#215 = APPROVAL_PERSON_ORGANIZATION ( #120, #133, #134 ) ;
#216 = EDGE_CURVE ( 'NONE', #162, #162, #217, .T. ) ;
#217 = CIRCLE ( 'NONE', #101, 0.4799999999999983169 ) ;
#218 = EDGE_LOOP ( 'NONE', ( #199 ) ) ;
#219 = ORIENTED_EDGE ( 'NONE', *, *, #196, .F. ) ;
#220 = PERSON_AND_ORGANIZATION_ROLE ( 'classification_officer' ) ;
#221 = CONICAL_SURFACE ( 'NONE', #189, 0.5499999999999990452, 0.7853981633974604915 ) ;
#222 = FACE_OUTER_BOUND ( 'NONE', #183, .T. ) ;
#223 = DIRECTION ( 'NONE',  ( 4.275831445896958607E-31, 1.000000000000000000, 1.224646799147353207E-16 ) ) ;
ENDSEC;
END-ISO-10303-21;
