ISO-10303-21;
HEADER;
FILE_DESCRIPTION (( 'STEP AP203' ),
    '1' );
FILE_NAME ('38295.step',
    '2021-10-07T13:47:52',
    ( '' ),
    ( '' ),
    'SwSTEP 2.0',
    'SolidWorks 2019',
    '' );
FILE_SCHEMA (( 'CONFIG_CONTROL_DESIGN' ));
ENDSEC;

DATA;
#1 = CALENDAR_DATE ( 2021, 7, 10 ) ;
#2 = APPROVAL ( #36, 'UNSPECIFIED' ) ;
#3 = MANIFOLD_SOLID_BREP ( 'Corps-Déplacer/Copier1[2]', #158 ) ;
#4 = EDGE_LOOP ( 'NONE', ( #145 ) ) ;
#5 = CIRCLE ( 'NONE', #26, 0.4549999999999983502 ) ;
#6 = EDGE_LOOP ( 'NONE', ( #183 ) ) ;
#7 = EDGE_LOOP ( 'NONE', ( #94 ) ) ;
#8 = EDGE_CURVE ( 'NONE', #133, #133, #91, .T. ) ;
#9 = CARTESIAN_POINT ( 'NONE',  ( 0.0000000000000000000, 0.0000000000000000000, 0.0000000000000000000 ) ) ;
#10 = DIRECTION ( 'NONE',  ( -3.491481338843133355E-15, 1.224646799147353207E-16, -1.000000000000000000 ) ) ;
#11 = FACE_OUTER_BOUND ( 'NONE', #22, .T. ) ;
#12 = VERTEX_POINT ( 'NONE', #153 ) ;
#13 = APPROVAL_STATUS ( 'not_yet_approved' ) ;
#14 = PERSON_AND_ORGANIZATION ( #29, #51 ) ;
#15 = COORDINATED_UNIVERSAL_TIME_OFFSET ( 1, 0, .AHEAD. ) ;
#16 = EDGE_CURVE ( 'NONE', #172, #172, #61, .T. ) ;
#17 = AXIS2_PLACEMENT_3D ( 'NONE', #131, #149, #186 ) ;
#18 = EDGE_CURVE ( 'NONE', #12, #12, #128, .T. ) ;
#19 = CALENDAR_DATE ( 2021, 7, 10 ) ;
#20 = ORIENTED_EDGE ( 'NONE', *, *, #18, .F. ) ;
#21 = EDGE_LOOP ( 'NONE', ( #115 ) ) ;
#22 = EDGE_LOOP ( 'NONE', ( #201 ) ) ;
#23 = CC_DESIGN_PERSON_AND_ORGANIZATION_ASSIGNMENT ( #213, #38, ( #73 ) ) ;
#24 = CARTESIAN_POINT ( 'NONE',  ( 2.657350731218996175E-14, 0.7499999999999963363, 7.610954988232823126 ) ) ;
#25 = FACE_OUTER_BOUND ( 'NONE', #97, .T. ) ;
#26 = AXIS2_PLACEMENT_3D ( 'NONE', #99, #206, #217 ) ;
#27 = APPROVAL ( #212, 'UNSPECIFIED' ) ;
#28 = CARTESIAN_POINT ( 'NONE',  ( 1.047444401652940007E-13, -3.673940397442059178E-15, 30.00000000000000000 ) ) ;
#29 = PERSON ( 'UNSPECIFIED', 'UNSPECIFIED', 'UNSPECIFIED', ('UNSPECIFIED'), ('UNSPECIFIED'), ('UNSPECIFIED') ) ;
#30 = DIRECTION ( 'NONE',  ( 0.0000000000000000000, 1.000000000000000000, 0.0000000000000000000 ) ) ;
#31 = PLANE ( 'NONE',  #215 ) ;
#32 = ADVANCED_BREP_SHAPE_REPRESENTATION ( '38295', ( #151, #3, #169 ), #148 ) ;
#33 = PERSON_AND_ORGANIZATION_ROLE ( 'design_owner' ) ;
#34 = PERSON_AND_ORGANIZATION_ROLE ( 'creator' ) ;
#35 = ADVANCED_FACE ( 'NONE', ( #218 ), #65, .T. ) ;
#36 = APPROVAL_STATUS ( 'not_yet_approved' ) ;
#37 = LOCAL_TIME ( 15, 47, 52.00000000000000000, #15 ) ;
#38 = PERSON_AND_ORGANIZATION_ROLE ( 'design_supplier' ) ;
#39 = CC_DESIGN_APPROVAL ( #90, ( #71 ) ) ;
#40 = ADVANCED_FACE ( 'NONE', ( #150 ), #31, .F. ) ;
#41 = AXIS2_PLACEMENT_3D ( 'NONE', #152, #189, #121 ) ;
#42 = APPLICATION_CONTEXT ( 'configuration controlled 3d designs of mechanical parts and assemblies' ) ;
#43 = DIRECTION ( 'NONE',  ( 3.491481338843133355E-15, -1.224646799147353207E-16, 1.000000000000000000 ) ) ;
#44 = DIRECTION ( 'NONE',  ( -3.491481338843133355E-15, 1.224646799147353207E-16, -1.000000000000000000 ) ) ;
#45 = FACE_OUTER_BOUND ( 'NONE', #185, .T. ) ;
#46 = AXIS2_PLACEMENT_3D ( 'NONE', #64, #117, #205 ) ;
#47 = DIRECTION ( 'NONE',  ( 4.275831445896958607E-31, 1.000000000000000000, 1.224646799147353207E-16 ) ) ;
#48 = CARTESIAN_POINT ( 'NONE',  ( 9.545416055541150619E-16, 0.4549999999999976841, 0.2733915816575415714 ) ) ;
#49 = ADVANCED_FACE ( 'NONE', ( #45 ), #203, .F. ) ;
#50 = APPROVAL_DATE_TIME ( #180, #27 ) ;
#51 = ORGANIZATION ( 'UNSPECIFIED', 'UNSPECIFIED', '' ) ;
#52 = VERTEX_POINT ( 'NONE', #155 ) ;
#53 = PERSON_AND_ORGANIZATION ( #29, #51 ) ;
#54 = COORDINATED_UNIVERSAL_TIME_OFFSET ( 1, 0, .AHEAD. ) ;
#55 = CIRCLE ( 'NONE', #17, 0.4549999999999983502 ) ;
#56 = ORIENTED_EDGE ( 'NONE', *, *, #16, .T. ) ;
#57 = ADVANCED_FACE ( 'NONE', ( #63, #168 ), #199, .T. ) ;
#58 = DIRECTION ( 'NONE',  ( 0.0000000000000000000, 1.000000000000000000, 0.0000000000000000000 ) ) ;
#59 = PRODUCT_RELATED_PRODUCT_CATEGORY ( 'detail', '', ( #110 ) ) ;
#60 = DIRECTION ( 'NONE',  ( 0.0000000000000000000, 1.000000000000000000, 0.0000000000000000000 ) ) ;
#61 = CIRCLE ( 'NONE', #160, 0.7499999999999973355 ) ;
#62 = ADVANCED_FACE ( 'NONE', ( #25 ), #119, .T. ) ;
#63 = FACE_BOUND ( 'NONE', #7, .T. ) ;
#64 = CARTESIAN_POINT ( 'NONE',  ( 2.478951750578624367E-14, 3.411953505555701015E-33, 7.099999999999999645 ) ) ;
#65 = PLANE ( 'NONE',  #46 ) ;
#66 = CARTESIAN_POINT ( 'NONE',  ( 2.478951750578624367E-14, 0.4549999999999975175, 7.099999999999999645 ) ) ;
#67 = CLOSED_SHELL ( 'NONE', ( #40, #57, #69, #147, #49 ) ) ;
#68 = DATE_AND_TIME ( #1, #37 ) ;
#69 = ADVANCED_FACE ( 'NONE', ( #102, #207 ), #204, .T. ) ;
#70 = PERSON_AND_ORGANIZATION ( #29, #51 ) ;
#71 = SECURITY_CLASSIFICATION ( '', '', #106 ) ;
#72 = ORIENTED_EDGE ( 'NONE', *, *, #101, .F. ) ;
#73 = PRODUCT_DEFINITION_FORMATION_WITH_SPECIFIED_SOURCE ( 'ANY', '', #110, .NOT_KNOWN. ) ;
#74 = ORIENTED_EDGE ( 'NONE', *, *, #8, .F. ) ;
#75 = CC_DESIGN_DATE_AND_TIME_ASSIGNMENT ( #122, #193, ( #71 ) ) ;
#76 = DIRECTION ( 'NONE',  ( -4.275831445896958607E-31, -1.000000000000000000, -1.224646799147353207E-16 ) ) ;
#77 = DIRECTION ( 'NONE',  ( -3.491481338843133355E-15, 1.224646799147353207E-16, -1.000000000000000000 ) ) ;
#78 = APPROVAL_PERSON_ORGANIZATION ( #53, #27, #104 ) ;
#79 = FACE_BOUND ( 'NONE', #6, .T. ) ;
#80 = DIRECTION ( 'NONE',  ( -3.491481338843133355E-15, 1.224646799147353207E-16, -1.000000000000000000 ) ) ;
#81 = CARTESIAN_POINT ( 'NONE',  ( 2.478951750578624367E-14, 3.411953505555701015E-33, 7.099999999999999645 ) ) ;
#82 = UNCERTAINTY_MEASURE_WITH_UNIT (LENGTH_MEASURE( 1.000000000000000082E-05 ), #223, 'distance_accuracy_value', 'NONE');
#83 = COORDINATED_UNIVERSAL_TIME_OFFSET ( 1, 0, .AHEAD. ) ;
#84 = APPROVAL_ROLE ( '' ) ;
#85 = COORDINATED_UNIVERSAL_TIME_OFFSET ( 1, 0, .AHEAD. ) ;
#86 = AXIS2_PLACEMENT_3D ( 'NONE', #220, #10, #60 ) ;
#87 = CARTESIAN_POINT ( 'NONE',  ( 0.0000000000000000000, 0.0000000000000000000, 0.0000000000000000000 ) ) ;
#88 = DATE_TIME_ROLE ( 'creation_date' ) ;
#89 = SHAPE_DEFINITION_REPRESENTATION ( #161, #32 ) ;
#90 = APPROVAL ( #13, 'UNSPECIFIED' ) ;
#91 = CIRCLE ( 'NONE', #107, 0.4549999999999977396 ) ;
#92 = DIRECTION ( 'NONE',  ( -3.491481338843133355E-15, 1.224646799147353207E-16, -1.000000000000000000 ) ) ;
#93 = CC_DESIGN_PERSON_AND_ORGANIZATION_ASSIGNMENT ( #14, #34, ( #166 ) ) ;
#94 = ORIENTED_EDGE ( 'NONE', *, *, #177, .F. ) ;
#95 = AXIS2_PLACEMENT_3D ( 'NONE', #28, #44, #100 ) ;
#96 = EDGE_LOOP ( 'NONE', ( #129 ) ) ;
#97 = EDGE_LOOP ( 'NONE', ( #146 ) ) ;
#98 = CARTESIAN_POINT ( 'NONE',  ( 9.545416055541148647E-16, -3.348081253907404237E-17, 0.2733915816575415159 ) ) ;
#99 = CARTESIAN_POINT ( 'NONE',  ( 2.478951750578624367E-14, -8.694992273946207746E-16, 7.099999999999999645 ) ) ;
#100 = DIRECTION ( 'NONE',  ( 0.0000000000000000000, 1.000000000000000000, 0.0000000000000000000 ) ) ;
#101 = EDGE_CURVE ( 'NONE', #222, #222, #5, .T. ) ;
#102 = FACE_OUTER_BOUND ( 'NONE', #96, .T. ) ;
#103 = CARTESIAN_POINT ( 'NONE',  ( 1.040461438975253866E-13, 0.7499999999999955591, 29.80000000000000426 ) ) ;
#104 = APPROVAL_ROLE ( '' ) ;
#105 = DIRECTION ( 'NONE',  ( 1.000000000000000000, 0.0000000000000000000, 0.0000000000000000000 ) ) ;
#106 = SECURITY_CLASSIFICATION_LEVEL ( 'unclassified' ) ;
#107 = AXIS2_PLACEMENT_3D ( 'NONE', #126, #216, #198 ) ;
#108 = APPLICATION_PROTOCOL_DEFINITION ( 'international standard', 'config_control_design', 1994, #42 ) ;
#109 = PERSON_AND_ORGANIZATION ( #29, #51 ) ;
#110 = PRODUCT ( '38295', '38295', '', ( #141 ) ) ;
#111 = CARTESIAN_POINT ( 'NONE',  ( 2.657350731218996175E-14, -9.320731664793906926E-16, 7.610954988232823126 ) ) ;
#112 = LOCAL_TIME ( 15, 47, 52.00000000000000000, #85 ) ;
#113 = EDGE_LOOP ( 'NONE', ( #72 ) ) ;
#114 = AXIS2_PLACEMENT_3D ( 'NONE', #118, #187, #132 ) ;
#115 = ORIENTED_EDGE ( 'NONE', *, *, #177, .T. ) ;
#116 = CARTESIAN_POINT ( 'NONE',  ( 1.047444401652940007E-13, -3.673940397442059178E-15, 30.00000000000000000 ) ) ;
#117 = DIRECTION ( 'NONE',  ( 3.491481338843133355E-15, -1.224646799147353207E-16, 1.000000000000000000 ) ) ;
#118 = CARTESIAN_POINT ( 'NONE',  ( 2.657350731218996175E-14, -9.320731664793906926E-16, 7.610954988232823126 ) ) ;
#119 = CONICAL_SURFACE ( 'NONE', #209, 0.4549999999999977396, 1.029744258676649871 ) ;
#120 = FACE_OUTER_BOUND ( 'NONE', #4, .T. ) ;
#121 = DIRECTION ( 'NONE',  ( 4.275831445896958607E-31, 1.000000000000000000, 1.224646799147353207E-16 ) ) ;
#122 = DATE_AND_TIME ( #178, #202 ) ;
#123 = CONICAL_SURFACE ( 'NONE', #130, 0.5499999999999990452, 0.7853981633974604915 ) ;
#124 = APPROVAL_DATE_TIME ( #68, #2 ) ;
#125 = CALENDAR_DATE ( 2021, 7, 10 ) ;
#126 = CARTESIAN_POINT ( 'NONE',  ( 9.545416055541148647E-16, -3.348081253907404237E-17, 0.2733915816575415159 ) ) ;
#127 = APPROVAL_DATE_TIME ( #144, #90 ) ;
#128 = CIRCLE ( 'NONE', #95, 0.5499999999999990452 ) ;
#129 = ORIENTED_EDGE ( 'NONE', *, *, #16, .F. ) ;
#130 = AXIS2_PLACEMENT_3D ( 'NONE', #116, #190, #30 ) ;
#131 = CARTESIAN_POINT ( 'NONE',  ( 2.478951750578624367E-14, -8.694992273946207746E-16, 7.099999999999999645 ) ) ;
#132 = DIRECTION ( 'NONE',  ( 0.0000000000000000000, -1.000000000000000000, 0.0000000000000000000 ) ) ;
#133 = VERTEX_POINT ( 'NONE', #48 ) ;
#134 = CC_DESIGN_PERSON_AND_ORGANIZATION_ASSIGNMENT ( #195, #33, ( #110 ) ) ;
#135 = FACE_OUTER_BOUND ( 'NONE', #165, .T. ) ;
#136 = APPROVAL_PERSON_ORGANIZATION ( #159, #2, #157 ) ;
#137 = VERTEX_POINT ( 'NONE', #103 ) ;
#138 = CALENDAR_DATE ( 2021, 7, 10 ) ;
#139 = ADVANCED_FACE ( 'NONE', ( #135, #11 ), #170, .T. ) ;
#140 = LOCAL_TIME ( 15, 47, 52.00000000000000000, #156 ) ;
#141 = MECHANICAL_CONTEXT ( 'NONE', #42, 'mechanical' ) ;
#142 = EDGE_CURVE ( 'NONE', #137, #137, #188, .T. ) ;
#143 = PERSON_AND_ORGANIZATION_ROLE ( 'creator' ) ;
#144 = DATE_AND_TIME ( #19, #140 ) ;
#145 = ORIENTED_EDGE ( 'NONE', *, *, #142, .F. ) ;
#146 = ORIENTED_EDGE ( 'NONE', *, *, #8, .T. ) ;
#147 = ADVANCED_FACE ( 'NONE', ( #120, #79 ), #123, .T. ) ;
#148 =( GEOMETRIC_REPRESENTATION_CONTEXT ( 3 ) GLOBAL_UNCERTAINTY_ASSIGNED_CONTEXT ( ( #82 ) ) GLOBAL_UNIT_ASSIGNED_CONTEXT ( ( #223, #194, #197 ) ) REPRESENTATION_CONTEXT ( 'NONE', 'WORKASPACE' ) );
#149 = DIRECTION ( 'NONE',  ( -3.491481338843133355E-15, 1.224646799147353207E-16, -1.000000000000000000 ) ) ;
#150 = FACE_OUTER_BOUND ( 'NONE', #21, .T. ) ;
#151 = MANIFOLD_SOLID_BREP ( 'Corps-Déplacer/Copier1[1]', #67 ) ;
#152 = CARTESIAN_POINT ( 'NONE',  ( 1.047444401652940007E-13, 4.124339402320045473E-33, 30.00000000000000000 ) ) ;
#153 = CARTESIAN_POINT ( 'NONE',  ( 1.047444401652940007E-13, 0.5499999999999953815, 30.00000000000000000 ) ) ;
#154 = CC_DESIGN_APPROVAL ( #2, ( #73 ) ) ;
#155 = CARTESIAN_POINT ( 'NONE',  ( 2.478951750578624367E-14, 0.4549999999999975175, 7.099999999999999645 ) ) ;
#156 = COORDINATED_UNIVERSAL_TIME_OFFSET ( 1, 0, .AHEAD. ) ;
#157 = APPROVAL_ROLE ( '' ) ;
#158 = CLOSED_SHELL ( 'NONE', ( #62, #139, #35 ) ) ;
#159 = PERSON_AND_ORGANIZATION ( #29, #51 ) ;
#160 = AXIS2_PLACEMENT_3D ( 'NONE', #111, #92, #58 ) ;
#161 = PRODUCT_DEFINITION_SHAPE ( 'NONE', 'NONE',  #166 ) ;
#162 = EDGE_LOOP ( 'NONE', ( #56 ) ) ;
#163 = ORIENTED_EDGE ( 'NONE', *, *, #142, .T. ) ;
#164 = CC_DESIGN_SECURITY_CLASSIFICATION ( #71, ( #73 ) ) ;
#165 = EDGE_LOOP ( 'NONE', ( #74 ) ) ;
#166 = PRODUCT_DEFINITION ( 'UNKNOWN', '', #73, #182 ) ;
#167 = APPLICATION_CONTEXT ( 'configuration controlled 3d designs of mechanical parts and assemblies' ) ;
#168 = FACE_OUTER_BOUND ( 'NONE', #162, .T. ) ;
#169 = AXIS2_PLACEMENT_3D ( 'NONE', #87, #211, #105 ) ;
#170 = CYLINDRICAL_SURFACE ( 'NONE', #184, 0.4549999999999980727 ) ;
#171 = DIRECTION ( 'NONE',  ( 4.275831445896958607E-31, 1.000000000000000000, 1.224646799147352961E-16 ) ) ;
#172 = VERTEX_POINT ( 'NONE', #24 ) ;
#173 = DIRECTION ( 'NONE',  ( 3.491481338843133355E-15, -1.224646799147353207E-16, 1.000000000000000000 ) ) ;
#174 = CC_DESIGN_APPROVAL ( #27, ( #166 ) ) ;
#175 = PERSON_AND_ORGANIZATION ( #29, #51 ) ;
#176 = APPLICATION_PROTOCOL_DEFINITION ( 'international standard', 'config_control_design', 1994, #167 ) ;
#177 = EDGE_CURVE ( 'NONE', #52, #52, #55, .T. ) ;
#178 = CALENDAR_DATE ( 2021, 7, 10 ) ;
#179 = LOCAL_TIME ( 15, 47, 52.00000000000000000, #54 ) ;
#180 = DATE_AND_TIME ( #138, #179 ) ;
#181 = AXIS2_PLACEMENT_3D ( 'NONE', #9, #77, #171 ) ;
#182 = DESIGN_CONTEXT ( 'detailed design', #167, 'design' ) ;
#183 = ORIENTED_EDGE ( 'NONE', *, *, #18, .T. ) ;
#184 = AXIS2_PLACEMENT_3D ( 'NONE', #192, #80, #47 ) ;
#185 = EDGE_LOOP ( 'NONE', ( #20 ) ) ;
#186 = DIRECTION ( 'NONE',  ( 0.0000000000000000000, 1.000000000000000000, 0.0000000000000000000 ) ) ;
#187 = DIRECTION ( 'NONE',  ( 3.491481338843133355E-15, -1.224646799147353207E-16, 1.000000000000000000 ) ) ;
#188 = CIRCLE ( 'NONE', #86, 0.7499999999999992228 ) ;
#189 = DIRECTION ( 'NONE',  ( -3.491481338843133355E-15, 1.224646799147353207E-16, -1.000000000000000000 ) ) ;
#190 = DIRECTION ( 'NONE',  ( -3.491481338843133355E-15, 1.224646799147353207E-16, -1.000000000000000000 ) ) ;
#191 = CC_DESIGN_PERSON_AND_ORGANIZATION_ASSIGNMENT ( #70, #143, ( #73 ) ) ;
#192 = CARTESIAN_POINT ( 'NONE',  ( 0.0000000000000000000, 0.0000000000000000000, 0.0000000000000000000 ) ) ;
#193 = DATE_TIME_ROLE ( 'classification_date' ) ;
#194 =( NAMED_UNIT ( * ) PLANE_ANGLE_UNIT ( ) SI_UNIT ( $, .RADIAN. ) );
#195 = PERSON_AND_ORGANIZATION ( #29, #51 ) ;
#196 = DATE_AND_TIME ( #125, #112 ) ;
#197 =( NAMED_UNIT ( * ) SI_UNIT ( $, .STERADIAN. ) SOLID_ANGLE_UNIT ( ) );
#198 = DIRECTION ( 'NONE',  ( 4.232813064587352853E-31, 1.000000000000000000, 1.191430958775285596E-16 ) ) ;
#199 = CONICAL_SURFACE ( 'NONE', #114, 0.7499999999999973355, 0.5235987755982930425 ) ;
#200 = EDGE_LOOP ( 'NONE', ( #163 ) ) ;
#201 = ORIENTED_EDGE ( 'NONE', *, *, #101, .T. ) ;
#202 = LOCAL_TIME ( 15, 47, 52.00000000000000000, #83 ) ;
#203 = PLANE ( 'NONE',  #41 ) ;
#204 = CYLINDRICAL_SURFACE ( 'NONE', #181, 0.7499999999999983347 ) ;
#205 = DIRECTION ( 'NONE',  ( -4.275831445896958607E-31, -1.000000000000000000, -1.224646799147353207E-16 ) ) ;
#206 = DIRECTION ( 'NONE',  ( -3.491481338843133355E-15, 1.224646799147353207E-16, -1.000000000000000000 ) ) ;
#207 = FACE_OUTER_BOUND ( 'NONE', #200, .T. ) ;
#208 = PERSON_AND_ORGANIZATION_ROLE ( 'classification_officer' ) ;
#209 = AXIS2_PLACEMENT_3D ( 'NONE', #98, #43, #219 ) ;
#210 = CC_DESIGN_PERSON_AND_ORGANIZATION_ASSIGNMENT ( #109, #208, ( #71 ) ) ;
#211 = DIRECTION ( 'NONE',  ( 0.0000000000000000000, 0.0000000000000000000, 1.000000000000000000 ) ) ;
#212 = APPROVAL_STATUS ( 'not_yet_approved' ) ;
#213 = PERSON_AND_ORGANIZATION ( #29, #51 ) ;
#214 = APPROVAL_PERSON_ORGANIZATION ( #175, #90, #84 ) ;
#215 = AXIS2_PLACEMENT_3D ( 'NONE', #81, #173, #76 ) ;
#216 = DIRECTION ( 'NONE',  ( -3.491481338843133355E-15, 1.224646799147353207E-16, -1.000000000000000000 ) ) ;
#217 = DIRECTION ( 'NONE',  ( 0.0000000000000000000, 1.000000000000000000, 0.0000000000000000000 ) ) ;
#218 = FACE_OUTER_BOUND ( 'NONE', #113, .T. ) ;
#219 = DIRECTION ( 'NONE',  ( -4.232813064587352853E-31, -1.000000000000000000, -1.191430958775285596E-16 ) ) ;
#220 = CARTESIAN_POINT ( 'NONE',  ( 1.040461438975253866E-13, -3.649447461459112464E-15, 29.80000000000000426 ) ) ;
#221 = CC_DESIGN_DATE_AND_TIME_ASSIGNMENT ( #196, #88, ( #166 ) ) ;
#222 = VERTEX_POINT ( 'NONE', #66 ) ;
#223 =( LENGTH_UNIT ( ) NAMED_UNIT ( * ) SI_UNIT ( .MILLI., .METRE. ) );
ENDSEC;
END-ISO-10303-21;
