ISO-10303-21;
HEADER;
FILE_DESCRIPTION (( 'STEP AP203' ),
    '1' );
FILE_NAME ('38294.step',
    '2021-10-07T13:47:51',
    ( '' ),
    ( '' ),
    'SwSTEP 2.0',
    'SolidWorks 2019',
    '' );
FILE_SCHEMA (( 'CONFIG_CONTROL_DESIGN' ));
ENDSEC;

DATA;
#1 = DIRECTION ( 'NONE',  ( 3.491481338843133355E-15, -1.224646799147353207E-16, 1.000000000000000000 ) ) ;
#2 = DIRECTION ( 'NONE',  ( -3.491481338843133355E-15, 1.224646799147353207E-16, -1.000000000000000000 ) ) ;
#3 = CARTESIAN_POINT ( 'NONE',  ( 9.020942645896042379E-16, -3.164120745450957728E-17, 0.2583700661818527644 ) ) ;
#4 = DIRECTION ( 'NONE',  ( -3.491481338843133355E-15, 1.224646799147353207E-16, -1.000000000000000000 ) ) ;
#5 = AXIS2_PLACEMENT_3D ( 'NONE', #165, #1, #59 ) ;
#6 = DATE_AND_TIME ( #187, #108 ) ;
#7 = CALENDAR_DATE ( 2021, 7, 10 ) ;
#8 = PERSON_AND_ORGANIZATION_ROLE ( 'design_owner' ) ;
#9 = AXIS2_PLACEMENT_3D ( 'NONE', #215, #144, #72 ) ;
#10 = LOCAL_TIME ( 15, 47, 51.00000000000000000, #25 ) ;
#11 = EDGE_LOOP ( 'NONE', ( #70 ) ) ;
#12 = FACE_OUTER_BOUND ( 'NONE', #158, .T. ) ;
#13 = ORIENTED_EDGE ( 'NONE', *, *, #145, .F. ) ;
#14 = CARTESIAN_POINT ( 'NONE',  ( 1.047444401652940007E-13, -3.673940397442059178E-15, 30.00000000000000000 ) ) ;
#15 = EDGE_CURVE ( 'NONE', #57, #57, #176, .T. ) ;
#16 = FACE_OUTER_BOUND ( 'NONE', #30, .T. ) ;
#17 = LOCAL_TIME ( 15, 47, 51.00000000000000000, #66 ) ;
#18 = DIRECTION ( 'NONE',  ( -3.491481338843133355E-15, 1.224646799147353207E-16, -1.000000000000000000 ) ) ;
#19 = CC_DESIGN_PERSON_AND_ORGANIZATION_ASSIGNMENT ( #172, #173, ( #150 ) ) ;
#20 = VERTEX_POINT ( 'NONE', #56 ) ;
#21 = CYLINDRICAL_SURFACE ( 'NONE', #166, 0.7499999999999983347 ) ;
#22 = CLOSED_SHELL ( 'NONE', ( #194, #52, #68, #65, #23 ) ) ;
#23 = ADVANCED_FACE ( 'NONE', ( #12 ), #195, .F. ) ;
#24 = PERSON_AND_ORGANIZATION ( #79, #42 ) ;
#25 = COORDINATED_UNIVERSAL_TIME_OFFSET ( 1, 0, .AHEAD. ) ;
#26 = CC_DESIGN_APPROVAL ( #198, ( #212 ) ) ;
#27 = PERSON_AND_ORGANIZATION ( #79, #42 ) ;
#28 = ADVANCED_FACE ( 'NONE', ( #178 ), #77, .T. ) ;
#29 = SHAPE_DEFINITION_REPRESENTATION ( #46, #51 ) ;
#30 = EDGE_LOOP ( 'NONE', ( #31 ) ) ;
#31 = ORIENTED_EDGE ( 'NONE', *, *, #164, .F. ) ;
#32 = AXIS2_PLACEMENT_3D ( 'NONE', #14, #2, #116 ) ;
#33 = DIRECTION ( 'NONE',  ( 4.275831445896958607E-31, 1.000000000000000000, 1.224646799147353207E-16 ) ) ;
#34 = VERTEX_POINT ( 'NONE', #97 ) ;
#35 = FACE_OUTER_BOUND ( 'NONE', #208, .T. ) ;
#36 = CIRCLE ( 'NONE', #95, 0.4299999999999983280 ) ;
#37 = CLOSED_SHELL ( 'NONE', ( #115, #132, #28 ) ) ;
#38 = CC_DESIGN_APPROVAL ( #71, ( #63 ) ) ;
#39 = CARTESIAN_POINT ( 'NONE',  ( 2.478951750578624367E-14, 3.224483532722972919E-33, 7.099999999999999645 ) ) ;
#40 = DIRECTION ( 'NONE',  ( -3.491481338843133355E-15, 1.224646799147353207E-16, -1.000000000000000000 ) ) ;
#41 = CARTESIAN_POINT ( 'NONE',  ( 0.0000000000000000000, 0.0000000000000000000, 0.0000000000000000000 ) ) ;
#42 = ORGANIZATION ( 'UNSPECIFIED', 'UNSPECIFIED', '' ) ;
#43 = DATE_AND_TIME ( #155, #140 ) ;
#44 = PERSON_AND_ORGANIZATION_ROLE ( 'classification_officer' ) ;
#45 = CARTESIAN_POINT ( 'NONE',  ( 1.040461438975253866E-13, 0.7499999999999955591, 29.80000000000000426 ) ) ;
#46 = PRODUCT_DEFINITION_SHAPE ( 'NONE', 'NONE',  #150 ) ;
#47 = APPLICATION_CONTEXT ( 'configuration controlled 3d designs of mechanical parts and assemblies' ) ;
#48 = EDGE_LOOP ( 'NONE', ( #141 ) ) ;
#49 = CC_DESIGN_DATE_AND_TIME_ASSIGNMENT ( #43, #103, ( #150 ) ) ;
#50 = ORIENTED_EDGE ( 'NONE', *, *, #156, .F. ) ;
#51 = ADVANCED_BREP_SHAPE_REPRESENTATION ( '38294', ( #169, #163, #113 ), #147 ) ;
#52 = ADVANCED_FACE ( 'NONE', ( #111, #98 ), #67, .T. ) ;
#53 = DIRECTION ( 'NONE',  ( -3.491481338843133355E-15, 1.224646799147353207E-16, -1.000000000000000000 ) ) ;
#54 = AXIS2_PLACEMENT_3D ( 'NONE', #105, #124, #175 ) ;
#55 = CC_DESIGN_APPROVAL ( #78, ( #150 ) ) ;
#56 = CARTESIAN_POINT ( 'NONE',  ( 2.478951750578624367E-14, 0.4299999999999981060, 7.099999999999999645 ) ) ;
#57 = VERTEX_POINT ( 'NONE', #58 ) ;
#58 = CARTESIAN_POINT ( 'NONE',  ( 2.672469288900383381E-14, 0.7499999999999963363, 7.654256258422044823 ) ) ;
#59 = DIRECTION ( 'NONE',  ( -4.478906847412194102E-31, -1.000000000000000000, -1.260700200564545022E-16 ) ) ;
#60 = COORDINATED_UNIVERSAL_TIME_OFFSET ( 1, 0, .AHEAD. ) ;
#61 = COORDINATED_UNIVERSAL_TIME_OFFSET ( 1, 0, .AHEAD. ) ;
#62 = CIRCLE ( 'NONE', #192, 0.4299999999999989386 ) ;
#63 = SECURITY_CLASSIFICATION ( '', '', #137 ) ;
#64 = DATE_TIME_ROLE ( 'classification_date' ) ;
#65 = ADVANCED_FACE ( 'NONE', ( #109, #183 ), #82, .T. ) ;
#66 = COORDINATED_UNIVERSAL_TIME_OFFSET ( 1, 0, .AHEAD. ) ;
#67 = CONICAL_SURFACE ( 'NONE', #133, 0.7499999999999973355, 0.5235987755982929315 ) ;
#68 = ADVANCED_FACE ( 'NONE', ( #217, #114 ), #21, .T. ) ;
#69 = EDGE_LOOP ( 'NONE', ( #50 ) ) ;
#70 = ORIENTED_EDGE ( 'NONE', *, *, #213, .F. ) ;
#71 = APPROVAL ( #135, 'UNSPECIFIED' ) ;
#72 = DIRECTION ( 'NONE',  ( 0.0000000000000000000, 1.000000000000000000, 0.0000000000000000000 ) ) ;
#73 = CC_DESIGN_PERSON_AND_ORGANIZATION_ASSIGNMENT ( #27, #8, ( #136 ) ) ;
#74 = DIRECTION ( 'NONE',  ( 4.478906847412194102E-31, 1.000000000000000000, 1.260700200564545022E-16 ) ) ;
#75 = DIRECTION ( 'NONE',  ( 0.0000000000000000000, 1.000000000000000000, 0.0000000000000000000 ) ) ;
#76 = VERTEX_POINT ( 'NONE', #129 ) ;
#77 = PLANE ( 'NONE',  #107 ) ;
#78 = APPROVAL ( #99, 'UNSPECIFIED' ) ;
#79 = PERSON ( 'UNSPECIFIED', 'UNSPECIFIED', 'UNSPECIFIED', ('UNSPECIFIED'), ('UNSPECIFIED'), ('UNSPECIFIED') ) ;
#80 = COORDINATED_UNIVERSAL_TIME_OFFSET ( 1, 0, .AHEAD. ) ;
#81 = APPROVAL_DATE_TIME ( #149, #198 ) ;
#82 = CONICAL_SURFACE ( 'NONE', #32, 0.5499999999999990452, 0.7853981633974604915 ) ;
#83 = APPROVAL_PERSON_ORGANIZATION ( #130, #71, #102 ) ;
#84 = APPLICATION_PROTOCOL_DEFINITION ( 'international standard', 'config_control_design', 1994, #47 ) ;
#85 = APPLICATION_CONTEXT ( 'configuration controlled 3d designs of mechanical parts and assemblies' ) ;
#86 =( NAMED_UNIT ( * ) SI_UNIT ( $, .STERADIAN. ) SOLID_ANGLE_UNIT ( ) );
#87 = AXIS2_PLACEMENT_3D ( 'NONE', #168, #53, #96 ) ;
#88 = EDGE_LOOP ( 'NONE', ( #89 ) ) ;
#89 = ORIENTED_EDGE ( 'NONE', *, *, #145, .T. ) ;
#90 = PRODUCT_RELATED_PRODUCT_CATEGORY ( 'detail', '', ( #136 ) ) ;
#91 = EDGE_LOOP ( 'NONE', ( #159 ) ) ;
#92 = CARTESIAN_POINT ( 'NONE',  ( 0.0000000000000000000, 0.0000000000000000000, 0.0000000000000000000 ) ) ;
#93 = DESIGN_CONTEXT ( 'detailed design', #47, 'design' ) ;
#94 = CARTESIAN_POINT ( 'NONE',  ( 2.478951750578624367E-14, -8.694992273946207746E-16, 7.099999999999999645 ) ) ;
#95 = AXIS2_PLACEMENT_3D ( 'NONE', #3, #125, #74 ) ;
#96 = DIRECTION ( 'NONE',  ( 0.0000000000000000000, 1.000000000000000000, 0.0000000000000000000 ) ) ;
#97 = CARTESIAN_POINT ( 'NONE',  ( 9.020942645896044351E-16, 0.4299999999999982725, 0.2583700661818528199 ) ) ;
#98 = FACE_OUTER_BOUND ( 'NONE', #48, .T. ) ;
#99 = APPROVAL_STATUS ( 'not_yet_approved' ) ;
#100 = CALENDAR_DATE ( 2021, 7, 10 ) ;
#101 = AXIS2_PLACEMENT_3D ( 'NONE', #201, #142, #214 ) ;
#102 = APPROVAL_ROLE ( '' ) ;
#103 = DATE_TIME_ROLE ( 'creation_date' ) ;
#104 = EDGE_LOOP ( 'NONE', ( #191 ) ) ;
#105 = CARTESIAN_POINT ( 'NONE',  ( 2.672469288900383381E-14, -9.373760426730153220E-16, 7.654256258422044823 ) ) ;
#106 = ORIENTED_EDGE ( 'NONE', *, *, #164, .T. ) ;
#107 = AXIS2_PLACEMENT_3D ( 'NONE', #39, #216, #170 ) ;
#108 = LOCAL_TIME ( 15, 47, 51.00000000000000000, #60 ) ;
#109 = FACE_OUTER_BOUND ( 'NONE', #11, .T. ) ;
#110 = DIRECTION ( 'NONE',  ( 3.491481338843133355E-15, -1.224646799147353207E-16, 1.000000000000000000 ) ) ;
#111 = FACE_BOUND ( 'NONE', #69, .T. ) ;
#112 = CONICAL_SURFACE ( 'NONE', #5, 0.4299999999999983280, 1.029744258676649649 ) ;
#113 = AXIS2_PLACEMENT_3D ( 'NONE', #41, #134, #189 ) ;
#114 = FACE_OUTER_BOUND ( 'NONE', #104, .T. ) ;
#115 = ADVANCED_FACE ( 'NONE', ( #35 ), #112, .T. ) ;
#116 = DIRECTION ( 'NONE',  ( 0.0000000000000000000, 1.000000000000000000, 0.0000000000000000000 ) ) ;
#117 = VERTEX_POINT ( 'NONE', #45 ) ;
#118 = PERSON_AND_ORGANIZATION ( #79, #42 ) ;
#119 = APPROVAL_ROLE ( '' ) ;
#120 = DATE_AND_TIME ( #139, #161 ) ;
#121 = CC_DESIGN_DATE_AND_TIME_ASSIGNMENT ( #6, #64, ( #63 ) ) ;
#122 = EDGE_LOOP ( 'NONE', ( #193 ) ) ;
#123 = UNCERTAINTY_MEASURE_WITH_UNIT (LENGTH_MEASURE( 1.000000000000000082E-05 ), #206, 'distance_accuracy_value', 'NONE');
#124 = DIRECTION ( 'NONE',  ( -3.491481338843133355E-15, 1.224646799147353207E-16, -1.000000000000000000 ) ) ;
#125 = DIRECTION ( 'NONE',  ( -3.491481338843133355E-15, 1.224646799147353207E-16, -1.000000000000000000 ) ) ;
#126 = CARTESIAN_POINT ( 'NONE',  ( 2.672469288900383381E-14, -9.373760426730153220E-16, 7.654256258422044823 ) ) ;
#127 = FACE_OUTER_BOUND ( 'NONE', #190, .T. ) ;
#128 = CARTESIAN_POINT ( 'NONE',  ( 1.047444401652940007E-13, 0.5499999999999953815, 30.00000000000000000 ) ) ;
#129 = CARTESIAN_POINT ( 'NONE',  ( 2.478951750578624367E-14, 0.4299999999999981060, 7.099999999999999645 ) ) ;
#130 = PERSON_AND_ORGANIZATION ( #79, #42 ) ;
#131 = MECHANICAL_CONTEXT ( 'NONE', #85, 'mechanical' ) ;
#132 = ADVANCED_FACE ( 'NONE', ( #16, #171 ), #181, .T. ) ;
#133 = AXIS2_PLACEMENT_3D ( 'NONE', #126, #110, #202 ) ;
#134 = DIRECTION ( 'NONE',  ( 0.0000000000000000000, 0.0000000000000000000, 1.000000000000000000 ) ) ;
#135 = APPROVAL_STATUS ( 'not_yet_approved' ) ;
#136 = PRODUCT ( '38294', '38294', '', ( #131 ) ) ;
#137 = SECURITY_CLASSIFICATION_LEVEL ( 'unclassified' ) ;
#138 = CC_DESIGN_PERSON_AND_ORGANIZATION_ASSIGNMENT ( #218, #152, ( #212 ) ) ;
#139 = CALENDAR_DATE ( 2021, 7, 10 ) ;
#140 = LOCAL_TIME ( 15, 47, 51.00000000000000000, #61 ) ;
#141 = ORIENTED_EDGE ( 'NONE', *, *, #15, .T. ) ;
#142 = DIRECTION ( 'NONE',  ( 3.491481338843133355E-15, -1.224646799147353207E-16, 1.000000000000000000 ) ) ;
#143 = CARTESIAN_POINT ( 'NONE',  ( 0.0000000000000000000, 0.0000000000000000000, 0.0000000000000000000 ) ) ;
#144 = DIRECTION ( 'NONE',  ( -3.491481338843133355E-15, 1.224646799147353207E-16, -1.000000000000000000 ) ) ;
#145 = EDGE_CURVE ( 'NONE', #196, #196, #184, .T. ) ;
#146 = DIRECTION ( 'NONE',  ( 4.275831445896958607E-31, 1.000000000000000000, 1.224646799147352961E-16 ) ) ;
#147 =( GEOMETRIC_REPRESENTATION_CONTEXT ( 3 ) GLOBAL_UNCERTAINTY_ASSIGNED_CONTEXT ( ( #123 ) ) GLOBAL_UNIT_ASSIGNED_CONTEXT ( ( #206, #185, #86 ) ) REPRESENTATION_CONTEXT ( 'NONE', 'WORKASPACE' ) );
#148 = APPROVAL_PERSON_ORGANIZATION ( #118, #78, #219 ) ;
#149 = DATE_AND_TIME ( #7, #17 ) ;
#150 = PRODUCT_DEFINITION ( 'UNKNOWN', '', #212, #93 ) ;
#151 = DATE_AND_TIME ( #100, #10 ) ;
#152 = PERSON_AND_ORGANIZATION_ROLE ( 'creator' ) ;
#153 = AXIS2_PLACEMENT_3D ( 'NONE', #197, #40, #75 ) ;
#154 = PERSON_AND_ORGANIZATION ( #79, #42 ) ;
#155 = CALENDAR_DATE ( 2021, 7, 10 ) ;
#156 = EDGE_CURVE ( 'NONE', #20, #20, #62, .T. ) ;
#157 = CC_DESIGN_SECURITY_CLASSIFICATION ( #63, ( #212 ) ) ;
#158 = EDGE_LOOP ( 'NONE', ( #13 ) ) ;
#159 = ORIENTED_EDGE ( 'NONE', *, *, #177, .F. ) ;
#160 = CARTESIAN_POINT ( 'NONE',  ( 1.047444401652940007E-13, 4.124339402320045473E-33, 30.00000000000000000 ) ) ;
#161 = LOCAL_TIME ( 15, 47, 51.00000000000000000, #80 ) ;
#162 = ORIENTED_EDGE ( 'NONE', *, *, #156, .T. ) ;
#163 = MANIFOLD_SOLID_BREP ( 'Corps-Déplacer/Copier1[2]', #37 ) ;
#164 = EDGE_CURVE ( 'NONE', #34, #34, #36, .T. ) ;
#165 = CARTESIAN_POINT ( 'NONE',  ( 9.020942645896042379E-16, -3.164120745450957728E-17, 0.2583700661818527644 ) ) ;
#166 = AXIS2_PLACEMENT_3D ( 'NONE', #92, #199, #146 ) ;
#167 = DIRECTION ( 'NONE',  ( -3.491481338843133355E-15, 1.224646799147353207E-16, -1.000000000000000000 ) ) ;
#168 = CARTESIAN_POINT ( 'NONE',  ( 1.047444401652940007E-13, -3.673940397442059178E-15, 30.00000000000000000 ) ) ;
#169 = MANIFOLD_SOLID_BREP ( 'Corps-Déplacer/Copier1[1]', #22 ) ;
#170 = DIRECTION ( 'NONE',  ( -4.275831445896958607E-31, -1.000000000000000000, -1.224646799147353207E-16 ) ) ;
#171 = FACE_OUTER_BOUND ( 'NONE', #122, .T. ) ;
#172 = PERSON_AND_ORGANIZATION ( #79, #42 ) ;
#173 = PERSON_AND_ORGANIZATION_ROLE ( 'creator' ) ;
#174 = APPLICATION_PROTOCOL_DEFINITION ( 'international standard', 'config_control_design', 1994, #85 ) ;
#175 = DIRECTION ( 'NONE',  ( 0.0000000000000000000, 1.000000000000000000, 0.0000000000000000000 ) ) ;
#176 = CIRCLE ( 'NONE', #54, 0.7499999999999973355 ) ;
#177 = EDGE_CURVE ( 'NONE', #76, #76, #221, .T. ) ;
#178 = FACE_OUTER_BOUND ( 'NONE', #91, .T. ) ;
#179 = PLANE ( 'NONE',  #101 ) ;
#180 = AXIS2_PLACEMENT_3D ( 'NONE', #160, #18, #33 ) ;
#181 = CYLINDRICAL_SURFACE ( 'NONE', #200, 0.4299999999999986611 ) ;
#182 = DIRECTION ( 'NONE',  ( 0.0000000000000000000, 1.000000000000000000, 0.0000000000000000000 ) ) ;
#183 = FACE_BOUND ( 'NONE', #88, .T. ) ;
#184 = CIRCLE ( 'NONE', #87, 0.5499999999999990452 ) ;
#185 =( NAMED_UNIT ( * ) PLANE_ANGLE_UNIT ( ) SI_UNIT ( $, .RADIAN. ) );
#186 = CC_DESIGN_PERSON_AND_ORGANIZATION_ASSIGNMENT ( #24, #204, ( #212 ) ) ;
#187 = CALENDAR_DATE ( 2021, 7, 10 ) ;
#188 = APPROVAL_PERSON_ORGANIZATION ( #154, #198, #119 ) ;
#189 = DIRECTION ( 'NONE',  ( 1.000000000000000000, 0.0000000000000000000, 0.0000000000000000000 ) ) ;
#190 = EDGE_LOOP ( 'NONE', ( #162 ) ) ;
#191 = ORIENTED_EDGE ( 'NONE', *, *, #213, .T. ) ;
#192 = AXIS2_PLACEMENT_3D ( 'NONE', #94, #167, #182 ) ;
#193 = ORIENTED_EDGE ( 'NONE', *, *, #177, .T. ) ;
#194 = ADVANCED_FACE ( 'NONE', ( #127 ), #179, .F. ) ;
#195 = PLANE ( 'NONE',  #180 ) ;
#196 = VERTEX_POINT ( 'NONE', #128 ) ;
#197 = CARTESIAN_POINT ( 'NONE',  ( 2.478951750578624367E-14, -8.694992273946207746E-16, 7.099999999999999645 ) ) ;
#198 = APPROVAL ( #203, 'UNSPECIFIED' ) ;
#199 = DIRECTION ( 'NONE',  ( -3.491481338843133355E-15, 1.224646799147353207E-16, -1.000000000000000000 ) ) ;
#200 = AXIS2_PLACEMENT_3D ( 'NONE', #143, #4, #211 ) ;
#201 = CARTESIAN_POINT ( 'NONE',  ( 2.478951750578624367E-14, 3.224483532722972919E-33, 7.099999999999999645 ) ) ;
#202 = DIRECTION ( 'NONE',  ( 0.0000000000000000000, -1.000000000000000000, 0.0000000000000000000 ) ) ;
#203 = APPROVAL_STATUS ( 'not_yet_approved' ) ;
#204 = PERSON_AND_ORGANIZATION_ROLE ( 'design_supplier' ) ;
#205 = APPROVAL_DATE_TIME ( #151, #78 ) ;
#206 =( LENGTH_UNIT ( ) NAMED_UNIT ( * ) SI_UNIT ( .MILLI., .METRE. ) );
#207 = EDGE_LOOP ( 'NONE', ( #223 ) ) ;
#208 = EDGE_LOOP ( 'NONE', ( #106 ) ) ;
#209 = CIRCLE ( 'NONE', #9, 0.7499999999999992228 ) ;
#210 = APPROVAL_DATE_TIME ( #120, #71 ) ;
#211 = DIRECTION ( 'NONE',  ( 4.275831445896958607E-31, 1.000000000000000000, 1.224646799147353207E-16 ) ) ;
#212 = PRODUCT_DEFINITION_FORMATION_WITH_SPECIFIED_SOURCE ( 'ANY', '', #136, .NOT_KNOWN. ) ;
#213 = EDGE_CURVE ( 'NONE', #117, #117, #209, .T. ) ;
#214 = DIRECTION ( 'NONE',  ( -4.275831445896958607E-31, -1.000000000000000000, -1.224646799147353207E-16 ) ) ;
#215 = CARTESIAN_POINT ( 'NONE',  ( 1.040461438975253866E-13, -3.649447461459112464E-15, 29.80000000000000426 ) ) ;
#216 = DIRECTION ( 'NONE',  ( 3.491481338843133355E-15, -1.224646799147353207E-16, 1.000000000000000000 ) ) ;
#217 = FACE_OUTER_BOUND ( 'NONE', #207, .T. ) ;
#218 = PERSON_AND_ORGANIZATION ( #79, #42 ) ;
#219 = APPROVAL_ROLE ( '' ) ;
#220 = CC_DESIGN_PERSON_AND_ORGANIZATION_ASSIGNMENT ( #222, #44, ( #63 ) ) ;
#221 = CIRCLE ( 'NONE', #153, 0.4299999999999989386 ) ;
#222 = PERSON_AND_ORGANIZATION ( #79, #42 ) ;
#223 = ORIENTED_EDGE ( 'NONE', *, *, #15, .F. ) ;
ENDSEC;
END-ISO-10303-21;
