ISO-10303-21;
HEADER;
FILE_DESCRIPTION (( 'STEP AP203' ),
    '1' );
FILE_NAME ('38293.step',
    '2021-10-07T13:47:51',
    ( '' ),
    ( '' ),
    'SwSTEP 2.0',
    'SolidWorks 2019',
    '' );
FILE_SCHEMA (( 'CONFIG_CONTROL_DESIGN' ));
ENDSEC;

DATA;
#1 = CARTESIAN_POINT ( 'NONE',  ( 1.047444401652940007E-13, -3.673940397442059178E-15, 30.00000000000000000 ) ) ;
#2 = AXIS2_PLACEMENT_3D ( 'NONE', #115, #47, #72 ) ;
#3 = CC_DESIGN_SECURITY_CLASSIFICATION ( #53, ( #116 ) ) ;
#4 = DIRECTION ( 'NONE',  ( -4.531599869146455796E-31, -1.000000000000000000, -1.275531967630010422E-16 ) ) ;
#5 = VERTEX_POINT ( 'NONE', #71 ) ;
#6 = DATE_AND_TIME ( #155, #202 ) ;
#7 = ORIENTED_EDGE ( 'NONE', *, *, #162, .F. ) ;
#8 = AXIS2_PLACEMENT_3D ( 'NONE', #25, #223, #84 ) ;
#9 = PERSON_AND_ORGANIZATION ( #111, #31 ) ;
#10 = ORIENTED_EDGE ( 'NONE', *, *, #162, .T. ) ;
#11 = CARTESIAN_POINT ( 'NONE',  ( 1.040461438975253866E-13, -3.649447461459112464E-15, 29.80000000000000426 ) ) ;
#12 = DIRECTION ( 'NONE',  ( -3.491481338843133355E-15, 1.224646799147353207E-16, -1.000000000000000000 ) ) ;
#13 = APPROVAL_STATUS ( 'not_yet_approved' ) ;
#14 = CARTESIAN_POINT ( 'NONE',  ( 2.199633243471174645E-14, -7.715274834628327350E-16, 6.300000000000001599 ) ) ;
#15 = SHAPE_DEFINITION_REPRESENTATION ( #182, #151 ) ;
#16 = CIRCLE ( 'NONE', #210, 0.7499999999999992228 ) ;
#17 = FACE_OUTER_BOUND ( 'NONE', #56, .T. ) ;
#18 = APPLICATION_CONTEXT ( 'configuration controlled 3d designs of mechanical parts and assemblies' ) ;
#19 = CYLINDRICAL_SURFACE ( 'NONE', #156, 0.4249999999999991007 ) ;
#20 = AXIS2_PLACEMENT_3D ( 'NONE', #112, #217, #107 ) ;
#21 = EDGE_CURVE ( 'NONE', #38, #38, #96, .T. ) ;
#22 = PERSON_AND_ORGANIZATION ( #111, #31 ) ;
#23 = VERTEX_POINT ( 'NONE', #205 ) ;
#24 = APPLICATION_PROTOCOL_DEFINITION ( 'international standard', 'config_control_design', 1994, #18 ) ;
#25 = CARTESIAN_POINT ( 'NONE',  ( 2.199633243471174329E-14, -1.030341880748819267E-31, 6.300000000000000711 ) ) ;
#26 = PRODUCT_RELATED_PRODUCT_CATEGORY ( 'detail', '', ( #197 ) ) ;
#27 = ORIENTED_EDGE ( 'NONE', *, *, #21, .F. ) ;
#28 = CARTESIAN_POINT ( 'NONE',  ( 2.199633243471174645E-14, 0.4249999999999991562, 6.300000000000001599 ) ) ;
#29 = DATE_AND_TIME ( #108, #200 ) ;
#30 = ORIENTED_EDGE ( 'NONE', *, *, #153, .T. ) ;
#31 = ORGANIZATION ( 'UNSPECIFIED', 'UNSPECIFIED', '' ) ;
#32 = CARTESIAN_POINT ( 'NONE',  ( 8.916047963967019547E-16, -3.127328643759667687E-17, 0.2553657630867149364 ) ) ;
#33 = DATE_AND_TIME ( #34, #42 ) ;
#34 = CALENDAR_DATE ( 2021, 7, 10 ) ;
#35 = CC_DESIGN_DATE_AND_TIME_ASSIGNMENT ( #29, #219, ( #142 ) ) ;
#36 = PLANE ( 'NONE',  #187 ) ;
#37 = CIRCLE ( 'NONE', #74, 0.4249999999999999334 ) ;
#38 = VERTEX_POINT ( 'NONE', #169 ) ;
#39 = CARTESIAN_POINT ( 'NONE',  ( 2.396174493329210217E-14, -8.404648739799521294E-16, 6.862916512459889873 ) ) ;
#40 = FACE_OUTER_BOUND ( 'NONE', #103, .T. ) ;
#41 = EDGE_CURVE ( 'NONE', #23, #23, #50, .T. ) ;
#42 = LOCAL_TIME ( 15, 47, 51.00000000000000000, #78 ) ;
#43 = PERSON_AND_ORGANIZATION_ROLE ( 'design_owner' ) ;
#44 = EDGE_CURVE ( 'NONE', #85, #85, #37, .T. ) ;
#45 = ORIENTED_EDGE ( 'NONE', *, *, #220, .T. ) ;
#46 = PERSON_AND_ORGANIZATION ( #111, #31 ) ;
#47 = DIRECTION ( 'NONE',  ( 3.491481338843133355E-15, -1.224646799147353207E-16, 1.000000000000000000 ) ) ;
#48 = CLOSED_SHELL ( 'NONE', ( #222, #100, #176 ) ) ;
#49 = AXIS2_PLACEMENT_3D ( 'NONE', #1, #207, #54 ) ;
#50 = CIRCLE ( 'NONE', #168, 0.4249999999999999334 ) ;
#51 = FACE_OUTER_BOUND ( 'NONE', #159, .T. ) ;
#52 = CONICAL_SURFACE ( 'NONE', #134, 0.7499999999999972244, 0.5235987755982930425 ) ;
#53 = SECURITY_CLASSIFICATION ( '', '', #150 ) ;
#54 = DIRECTION ( 'NONE',  ( 0.0000000000000000000, 1.000000000000000000, 0.0000000000000000000 ) ) ;
#55 = EDGE_LOOP ( 'NONE', ( #45 ) ) ;
#56 = EDGE_LOOP ( 'NONE', ( #30 ) ) ;
#57 = FACE_OUTER_BOUND ( 'NONE', #55, .T. ) ;
#58 = APPROVAL ( #65, 'UNSPECIFIED' ) ;
#59 = EDGE_LOOP ( 'NONE', ( #120 ) ) ;
#60 = CARTESIAN_POINT ( 'NONE',  ( 1.047444401652940007E-13, 4.124339402320045473E-33, 30.00000000000000000 ) ) ;
#61 = PERSON_AND_ORGANIZATION_ROLE ( 'classification_officer' ) ;
#62 = COORDINATED_UNIVERSAL_TIME_OFFSET ( 1, 0, .AHEAD. ) ;
#63 = CC_DESIGN_PERSON_AND_ORGANIZATION_ASSIGNMENT ( #22, #89, ( #142 ) ) ;
#64 = PERSON_AND_ORGANIZATION ( #111, #31 ) ;
#65 = APPROVAL_STATUS ( 'not_yet_approved' ) ;
#66 = APPROVAL_PERSON_ORGANIZATION ( #64, #98, #79 ) ;
#67 = DIRECTION ( 'NONE',  ( -3.491481338843133355E-15, 1.224646799147353207E-16, -1.000000000000000000 ) ) ;
#68 = FACE_OUTER_BOUND ( 'NONE', #194, .T. ) ;
#69 =( LENGTH_UNIT ( ) NAMED_UNIT ( * ) SI_UNIT ( .MILLI., .METRE. ) );
#70 = AXIS2_PLACEMENT_3D ( 'NONE', #193, #117, #119 ) ;
#71 = CARTESIAN_POINT ( 'NONE',  ( 2.396174493329210217E-14, 0.7499999999999963363, 6.862916512459889873 ) ) ;
#72 = DIRECTION ( 'NONE',  ( -4.275831445896958607E-31, -1.000000000000000000, -1.224646799147353207E-16 ) ) ;
#73 = ADVANCED_FACE ( 'NONE', ( #40 ), #101, .F. ) ;
#74 = AXIS2_PLACEMENT_3D ( 'NONE', #164, #189, #204 ) ;
#75 = EDGE_LOOP ( 'NONE', ( #10 ) ) ;
#76 = FACE_OUTER_BOUND ( 'NONE', #174, .T. ) ;
#77 = LOCAL_TIME ( 15, 47, 51.00000000000000000, #110 ) ;
#78 = COORDINATED_UNIVERSAL_TIME_OFFSET ( 1, 0, .AHEAD. ) ;
#79 = APPROVAL_ROLE ( '' ) ;
#80 = DIRECTION ( 'NONE',  ( -3.491481338843133355E-15, 1.224646799147353207E-16, -1.000000000000000000 ) ) ;
#81 = COORDINATED_UNIVERSAL_TIME_OFFSET ( 1, 0, .AHEAD. ) ;
#82 = FACE_BOUND ( 'NONE', #143, .T. ) ;
#83 = DIRECTION ( 'NONE',  ( -3.491481338843133355E-15, 1.224646799147353207E-16, -1.000000000000000000 ) ) ;
#84 = DIRECTION ( 'NONE',  ( -4.275831445896958607E-31, -1.000000000000000000, -1.224646799147353207E-16 ) ) ;
#85 = VERTEX_POINT ( 'NONE', #28 ) ;
#86 = CC_DESIGN_PERSON_AND_ORGANIZATION_ASSIGNMENT ( #127, #178, ( #116 ) ) ;
#87 = PERSON_AND_ORGANIZATION ( #111, #31 ) ;
#88 = ORIENTED_EDGE ( 'NONE', *, *, #41, .F. ) ;
#89 = PERSON_AND_ORGANIZATION_ROLE ( 'creator' ) ;
#90 = APPLICATION_CONTEXT ( 'configuration controlled 3d designs of mechanical parts and assemblies' ) ;
#91 =( GEOMETRIC_REPRESENTATION_CONTEXT ( 3 ) GLOBAL_UNCERTAINTY_ASSIGNED_CONTEXT ( ( #203 ) ) GLOBAL_UNIT_ASSIGNED_CONTEXT ( ( #69, #171, #139 ) ) REPRESENTATION_CONTEXT ( 'NONE', 'WORKASPACE' ) );
#92 = CARTESIAN_POINT ( 'NONE',  ( 2.396174493329210217E-14, -8.404648739799521294E-16, 6.862916512459889873 ) ) ;
#93 = DIRECTION ( 'NONE',  ( 0.0000000000000000000, 1.000000000000000000, 0.0000000000000000000 ) ) ;
#94 = CC_DESIGN_DATE_AND_TIME_ASSIGNMENT ( #218, #216, ( #53 ) ) ;
#95 = DATE_AND_TIME ( #160, #152 ) ;
#96 = CIRCLE ( 'NONE', #20, 0.5499999999999990452 ) ;
#97 = CC_DESIGN_APPROVAL ( #98, ( #116 ) ) ;
#98 = APPROVAL ( #13, 'UNSPECIFIED' ) ;
#99 = APPROVAL_DATE_TIME ( #6, #123 ) ;
#100 = ADVANCED_FACE ( 'NONE', ( #76, #167 ), #19, .T. ) ;
#101 = PLANE ( 'NONE',  #2 ) ;
#102 = PLANE ( 'NONE',  #8 ) ;
#103 = EDGE_LOOP ( 'NONE', ( #196 ) ) ;
#104 = APPROVAL_DATE_TIME ( #33, #58 ) ;
#105 = CONICAL_SURFACE ( 'NONE', #49, 0.5499999999999990452, 0.7853981633974604915 ) ;
#106 = CC_DESIGN_PERSON_AND_ORGANIZATION_ASSIGNMENT ( #141, #43, ( #197 ) ) ;
#107 = DIRECTION ( 'NONE',  ( 0.0000000000000000000, 1.000000000000000000, 0.0000000000000000000 ) ) ;
#108 = CALENDAR_DATE ( 2021, 7, 10 ) ;
#109 = CARTESIAN_POINT ( 'NONE',  ( 0.0000000000000000000, 0.0000000000000000000, 0.0000000000000000000 ) ) ;
#110 = COORDINATED_UNIVERSAL_TIME_OFFSET ( 1, 0, .AHEAD. ) ;
#111 = PERSON ( 'UNSPECIFIED', 'UNSPECIFIED', 'UNSPECIFIED', ('UNSPECIFIED'), ('UNSPECIFIED'), ('UNSPECIFIED') ) ;
#112 = CARTESIAN_POINT ( 'NONE',  ( 1.047444401652940007E-13, -3.673940397442059178E-15, 30.00000000000000000 ) ) ;
#113 = CYLINDRICAL_SURFACE ( 'NONE', #213, 0.7499999999999983347 ) ;
#114 = CC_DESIGN_APPROVAL ( #58, ( #53 ) ) ;
#115 = CARTESIAN_POINT ( 'NONE',  ( 2.199633243471174329E-14, -1.030341880748819267E-31, 6.300000000000000711 ) ) ;
#116 = PRODUCT_DEFINITION_FORMATION_WITH_SPECIFIED_SOURCE ( 'ANY', '', #197, .NOT_KNOWN. ) ;
#117 = DIRECTION ( 'NONE',  ( 0.0000000000000000000, 0.0000000000000000000, 1.000000000000000000 ) ) ;
#118 = FACE_BOUND ( 'NONE', #126, .T. ) ;
#119 = DIRECTION ( 'NONE',  ( 1.000000000000000000, 0.0000000000000000000, 0.0000000000000000000 ) ) ;
#120 = ORIENTED_EDGE ( 'NONE', *, *, #153, .F. ) ;
#121 = CARTESIAN_POINT ( 'NONE',  ( 8.916047963967019547E-16, -3.127328643759667687E-17, 0.2553657630867149364 ) ) ;
#122 = APPROVAL_DATE_TIME ( #95, #98 ) ;
#123 = APPROVAL ( #190, 'UNSPECIFIED' ) ;
#124 = EDGE_LOOP ( 'NONE', ( #161 ) ) ;
#125 = DIRECTION ( 'NONE',  ( 0.0000000000000000000, 1.000000000000000000, 0.0000000000000000000 ) ) ;
#126 = EDGE_LOOP ( 'NONE', ( #199 ) ) ;
#127 = PERSON_AND_ORGANIZATION ( #111, #31 ) ;
#128 = CONICAL_SURFACE ( 'NONE', #140, 0.4249999999999982681, 1.029744258676649649 ) ;
#129 = PERSON_AND_ORGANIZATION_ROLE ( 'creator' ) ;
#130 = APPROVAL_ROLE ( '' ) ;
#131 = FACE_OUTER_BOUND ( 'NONE', #59, .T. ) ;
#132 = ADVANCED_FACE ( 'NONE', ( #170, #17 ), #113, .T. ) ;
#133 = CLOSED_SHELL ( 'NONE', ( #73, #146, #132, #166, #136 ) ) ;
#134 = AXIS2_PLACEMENT_3D ( 'NONE', #92, #180, #165 ) ;
#135 = DIRECTION ( 'NONE',  ( 4.275831445896958607E-31, 1.000000000000000000, 1.224646799147353207E-16 ) ) ;
#136 = ADVANCED_FACE ( 'NONE', ( #51 ), #36, .F. ) ;
#137 = DIRECTION ( 'NONE',  ( 4.275831445896958607E-31, 1.000000000000000000, 1.224646799147353207E-16 ) ) ;
#138 = FACE_OUTER_BOUND ( 'NONE', #75, .T. ) ;
#139 =( NAMED_UNIT ( * ) SI_UNIT ( $, .STERADIAN. ) SOLID_ANGLE_UNIT ( ) );
#140 = AXIS2_PLACEMENT_3D ( 'NONE', #121, #144, #4 ) ;
#141 = PERSON_AND_ORGANIZATION ( #111, #31 ) ;
#142 = PRODUCT_DEFINITION ( 'UNKNOWN', '', #116, #181 ) ;
#143 = EDGE_LOOP ( 'NONE', ( #88 ) ) ;
#144 = DIRECTION ( 'NONE',  ( 3.491481338843133355E-15, -1.224646799147353207E-16, 1.000000000000000000 ) ) ;
#145 = APPROVAL_PERSON_ORGANIZATION ( #46, #58, #130 ) ;
#146 = ADVANCED_FACE ( 'NONE', ( #82, #57 ), #52, .T. ) ;
#147 = MANIFOLD_SOLID_BREP ( 'Corps-Déplacer/Copier1[2]', #48 ) ;
#148 = DIRECTION ( 'NONE',  ( -3.491481338843133355E-15, 1.224646799147353207E-16, -1.000000000000000000 ) ) ;
#149 = MANIFOLD_SOLID_BREP ( 'Corps-Déplacer/Copier1[1]', #133 ) ;
#150 = SECURITY_CLASSIFICATION_LEVEL ( 'unclassified' ) ;
#151 = ADVANCED_BREP_SHAPE_REPRESENTATION ( '38293', ( #149, #147, #70 ), #91 ) ;
#152 = LOCAL_TIME ( 15, 47, 51.00000000000000000, #81 ) ;
#153 = EDGE_CURVE ( 'NONE', #172, #172, #16, .T. ) ;
#154 = PERSON_AND_ORGANIZATION ( #111, #31 ) ;
#155 = CALENDAR_DATE ( 2021, 7, 10 ) ;
#156 = AXIS2_PLACEMENT_3D ( 'NONE', #221, #67, #137 ) ;
#157 = DIRECTION ( 'NONE',  ( 0.0000000000000000000, 1.000000000000000000, 0.0000000000000000000 ) ) ;
#158 = APPROVAL_ROLE ( '' ) ;
#159 = EDGE_LOOP ( 'NONE', ( #27 ) ) ;
#160 = CALENDAR_DATE ( 2021, 7, 10 ) ;
#161 = ORIENTED_EDGE ( 'NONE', *, *, #44, .T. ) ;
#162 = EDGE_CURVE ( 'NONE', #188, #188, #206, .T. ) ;
#163 = APPROVAL_PERSON_ORGANIZATION ( #87, #123, #158 ) ;
#164 = CARTESIAN_POINT ( 'NONE',  ( 2.199633243471174645E-14, -7.715274834628327350E-16, 6.300000000000001599 ) ) ;
#165 = DIRECTION ( 'NONE',  ( 0.0000000000000000000, -1.000000000000000000, 0.0000000000000000000 ) ) ;
#166 = ADVANCED_FACE ( 'NONE', ( #131, #118 ), #105, .T. ) ;
#167 = FACE_OUTER_BOUND ( 'NONE', #124, .T. ) ;
#168 = AXIS2_PLACEMENT_3D ( 'NONE', #14, #183, #93 ) ;
#169 = CARTESIAN_POINT ( 'NONE',  ( 1.047444401652940007E-13, 0.5499999999999953815, 30.00000000000000000 ) ) ;
#170 = FACE_OUTER_BOUND ( 'NONE', #212, .T. ) ;
#171 =( NAMED_UNIT ( * ) PLANE_ANGLE_UNIT ( ) SI_UNIT ( $, .RADIAN. ) );
#172 = VERTEX_POINT ( 'NONE', #175 ) ;
#173 = CIRCLE ( 'NONE', #185, 0.7499999999999972244 ) ;
#174 = EDGE_LOOP ( 'NONE', ( #7 ) ) ;
#175 = CARTESIAN_POINT ( 'NONE',  ( 1.040461438975253866E-13, 0.7499999999999955591, 29.80000000000000426 ) ) ;
#176 = ADVANCED_FACE ( 'NONE', ( #68 ), #102, .T. ) ;
#177 = ORIENTED_EDGE ( 'NONE', *, *, #220, .F. ) ;
#178 = PERSON_AND_ORGANIZATION_ROLE ( 'design_supplier' ) ;
#179 = ORIENTED_EDGE ( 'NONE', *, *, #44, .F. ) ;
#180 = DIRECTION ( 'NONE',  ( 3.491481338843133355E-15, -1.224646799147353207E-16, 1.000000000000000000 ) ) ;
#181 = DESIGN_CONTEXT ( 'detailed design', #90, 'design' ) ;
#182 = PRODUCT_DEFINITION_SHAPE ( 'NONE', 'NONE',  #142 ) ;
#183 = DIRECTION ( 'NONE',  ( -3.491481338843133355E-15, 1.224646799147353207E-16, -1.000000000000000000 ) ) ;
#184 = DIRECTION ( 'NONE',  ( -3.491481338843133355E-15, 1.224646799147353207E-16, -1.000000000000000000 ) ) ;
#185 = AXIS2_PLACEMENT_3D ( 'NONE', #39, #83, #157 ) ;
#186 = CC_DESIGN_PERSON_AND_ORGANIZATION_ASSIGNMENT ( #9, #129, ( #116 ) ) ;
#187 = AXIS2_PLACEMENT_3D ( 'NONE', #60, #148, #135 ) ;
#188 = VERTEX_POINT ( 'NONE', #211 ) ;
#189 = DIRECTION ( 'NONE',  ( -3.491481338843133355E-15, 1.224646799147353207E-16, -1.000000000000000000 ) ) ;
#190 = APPROVAL_STATUS ( 'not_yet_approved' ) ;
#191 = AXIS2_PLACEMENT_3D ( 'NONE', #32, #12, #215 ) ;
#192 = CC_DESIGN_PERSON_AND_ORGANIZATION_ASSIGNMENT ( #154, #61, ( #53 ) ) ;
#193 = CARTESIAN_POINT ( 'NONE',  ( 0.0000000000000000000, 0.0000000000000000000, 0.0000000000000000000 ) ) ;
#194 = EDGE_LOOP ( 'NONE', ( #179 ) ) ;
#195 = COORDINATED_UNIVERSAL_TIME_OFFSET ( 1, 0, .AHEAD. ) ;
#196 = ORIENTED_EDGE ( 'NONE', *, *, #41, .T. ) ;
#197 = PRODUCT ( '38293', '38293', '', ( #209 ) ) ;
#198 = CALENDAR_DATE ( 2021, 7, 10 ) ;
#199 = ORIENTED_EDGE ( 'NONE', *, *, #21, .T. ) ;
#200 = LOCAL_TIME ( 15, 47, 51.00000000000000000, #62 ) ;
#201 = DIRECTION ( 'NONE',  ( 4.275831445896958607E-31, 1.000000000000000000, 1.224646799147352961E-16 ) ) ;
#202 = LOCAL_TIME ( 15, 47, 51.00000000000000000, #195 ) ;
#203 = UNCERTAINTY_MEASURE_WITH_UNIT (LENGTH_MEASURE( 1.000000000000000082E-05 ), #69, 'distance_accuracy_value', 'NONE');
#204 = DIRECTION ( 'NONE',  ( 0.0000000000000000000, 1.000000000000000000, 0.0000000000000000000 ) ) ;
#205 = CARTESIAN_POINT ( 'NONE',  ( 2.199633243471174645E-14, 0.4249999999999991562, 6.300000000000001599 ) ) ;
#206 = CIRCLE ( 'NONE', #191, 0.4249999999999982681 ) ;
#207 = DIRECTION ( 'NONE',  ( -3.491481338843133355E-15, 1.224646799147353207E-16, -1.000000000000000000 ) ) ;
#208 = APPLICATION_PROTOCOL_DEFINITION ( 'international standard', 'config_control_design', 1994, #90 ) ;
#209 = MECHANICAL_CONTEXT ( 'NONE', #18, 'mechanical' ) ;
#210 = AXIS2_PLACEMENT_3D ( 'NONE', #11, #184, #125 ) ;
#211 = CARTESIAN_POINT ( 'NONE',  ( 8.916047963967021520E-16, 0.4249999999999982681, 0.2553657630867149919 ) ) ;
#212 = EDGE_LOOP ( 'NONE', ( #177 ) ) ;
#213 = AXIS2_PLACEMENT_3D ( 'NONE', #109, #80, #201 ) ;
#214 = CC_DESIGN_APPROVAL ( #123, ( #142 ) ) ;
#215 = DIRECTION ( 'NONE',  ( 4.531599869146455796E-31, 1.000000000000000000, 1.275531967630010422E-16 ) ) ;
#216 = DATE_TIME_ROLE ( 'classification_date' ) ;
#217 = DIRECTION ( 'NONE',  ( -3.491481338843133355E-15, 1.224646799147353207E-16, -1.000000000000000000 ) ) ;
#218 = DATE_AND_TIME ( #198, #77 ) ;
#219 = DATE_TIME_ROLE ( 'creation_date' ) ;
#220 = EDGE_CURVE ( 'NONE', #5, #5, #173, .T. ) ;
#221 = CARTESIAN_POINT ( 'NONE',  ( 0.0000000000000000000, 0.0000000000000000000, 0.0000000000000000000 ) ) ;
#222 = ADVANCED_FACE ( 'NONE', ( #138 ), #128, .T. ) ;
#223 = DIRECTION ( 'NONE',  ( 3.491481338843133355E-15, -1.224646799147353207E-16, 1.000000000000000000 ) ) ;
ENDSEC;
END-ISO-10303-21;
