ISO-10303-21;
HEADER;
FILE_DESCRIPTION (( 'STEP AP203' ),
    '1' );
FILE_NAME ('38292.step',
    '2021-10-07T13:47:50',
    ( '' ),
    ( '' ),
    'SwSTEP 2.0',
    'SolidWorks 2019',
    '' );
FILE_SCHEMA (( 'CONFIG_CONTROL_DESIGN' ));
ENDSEC;

DATA;
#1 = FACE_OUTER_BOUND ( 'NONE', #207, .T. ) ;
#2 = ORIENTED_EDGE ( 'NONE', *, *, #128, .T. ) ;
#3 = APPROVAL ( #183, 'UNSPECIFIED' ) ;
#4 = AXIS2_PLACEMENT_3D ( 'NONE', #180, #219, #66 ) ;
#5 = FACE_OUTER_BOUND ( 'NONE', #122, .T. ) ;
#6 = CC_DESIGN_PERSON_AND_ORGANIZATION_ASSIGNMENT ( #163, #202, ( #109 ) ) ;
#7 = DIRECTION ( 'NONE',  ( 3.491481338843133355E-15, -1.224646799147353207E-16, 1.000000000000000000 ) ) ;
#8 = FACE_OUTER_BOUND ( 'NONE', #35, .T. ) ;
#9 = AXIS2_PLACEMENT_3D ( 'NONE', #216, #173, #77 ) ;
#10 =( LENGTH_UNIT ( ) NAMED_UNIT ( * ) SI_UNIT ( .MILLI., .METRE. ) );
#11 = COORDINATED_UNIVERSAL_TIME_OFFSET ( 1, 0, .AHEAD. ) ;
#12 = PERSON_AND_ORGANIZATION ( #46, #79 ) ;
#13 = PERSON_AND_ORGANIZATION ( #46, #79 ) ;
#14 = AXIS2_PLACEMENT_3D ( 'NONE', #179, #7, #161 ) ;
#15 = PRODUCT ( '38292', '38292', '', ( #166 ) ) ;
#16 = CONICAL_SURFACE ( 'NONE', #168, 0.7499999999999963363, 0.5235987755982939307 ) ;
#17 = ADVANCED_FACE ( 'NONE', ( #55 ), #124, .F. ) ;
#18 = DESIGN_CONTEXT ( 'detailed design', #86, 'design' ) ;
#19 = ORIENTED_EDGE ( 'NONE', *, *, #123, .T. ) ;
#20 = DIRECTION ( 'NONE',  ( 0.0000000000000000000, 1.000000000000000000, 0.0000000000000000000 ) ) ;
#21 = CARTESIAN_POINT ( 'NONE',  ( 2.199633243471174329E-14, -7.715274834628326364E-16, 6.300000000000000711 ) ) ;
#22 = APPROVAL_PERSON_ORGANIZATION ( #200, #187, #222 ) ;
#23 = VERTEX_POINT ( 'NONE', #24 ) ;
#24 = CARTESIAN_POINT ( 'NONE',  ( 1.040461438975253866E-13, 0.7499999999999955591, 29.80000000000000426 ) ) ;
#25 = CC_DESIGN_PERSON_AND_ORGANIZATION_ASSIGNMENT ( #118, #28, ( #38 ) ) ;
#26 = APPROVAL_STATUS ( 'not_yet_approved' ) ;
#27 = APPROVAL_STATUS ( 'not_yet_approved' ) ;
#28 = PERSON_AND_ORGANIZATION_ROLE ( 'design_supplier' ) ;
#29 = DATE_AND_TIME ( #50, #73 ) ;
#30 = PLANE ( 'NONE',  #221 ) ;
#31 = CIRCLE ( 'NONE', #199, 0.7499999999999992228 ) ;
#32 = CYLINDRICAL_SURFACE ( 'NONE', #136, 0.4199999999999977640 ) ;
#33 = ORIENTED_EDGE ( 'NONE', *, *, #123, .F. ) ;
#34 = CC_DESIGN_DATE_AND_TIME_ASSIGNMENT ( #149, #68, ( #109 ) ) ;
#35 = EDGE_LOOP ( 'NONE', ( #54 ) ) ;
#36 = CARTESIAN_POINT ( 'NONE',  ( 0.0000000000000000000, 0.0000000000000000000, 0.0000000000000000000 ) ) ;
#37 = ORIENTED_EDGE ( 'NONE', *, *, #88, .T. ) ;
#38 = PRODUCT_DEFINITION_FORMATION_WITH_SPECIFIED_SOURCE ( 'ANY', '', #15, .NOT_KNOWN. ) ;
#39 = DIRECTION ( 'NONE',  ( 0.0000000000000000000, 1.000000000000000000, 0.0000000000000000000 ) ) ;
#40 = LOCAL_TIME ( 15, 47, 50.00000000000000000, #119 ) ;
#41 = CARTESIAN_POINT ( 'NONE',  ( 8.811153282037979953E-16, -3.090536542068372099E-17, 0.2523614599915766643 ) ) ;
#42 = VERTEX_POINT ( 'NONE', #99 ) ;
#43 = ADVANCED_FACE ( 'NONE', ( #8, #196 ), #210, .T. ) ;
#44 = DATE_TIME_ROLE ( 'classification_date' ) ;
#45 = AXIS2_PLACEMENT_3D ( 'NONE', #214, #145, #174 ) ;
#46 = PERSON ( 'UNSPECIFIED', 'UNSPECIFIED', 'UNSPECIFIED', ('UNSPECIFIED'), ('UNSPECIFIED'), ('UNSPECIFIED') ) ;
#47 = FACE_OUTER_BOUND ( 'NONE', #121, .T. ) ;
#48 = CC_DESIGN_PERSON_AND_ORGANIZATION_ASSIGNMENT ( #13, #185, ( #15 ) ) ;
#49 = COORDINATED_UNIVERSAL_TIME_OFFSET ( 1, 0, .AHEAD. ) ;
#50 = CALENDAR_DATE ( 2021, 7, 10 ) ;
#51 = CLOSED_SHELL ( 'NONE', ( #132, #135, #153, #43, #17 ) ) ;
#52 = CC_DESIGN_APPROVAL ( #187, ( #38 ) ) ;
#53 = ADVANCED_BREP_SHAPE_REPRESENTATION ( '38292', ( #218, #140, #4 ), #75 ) ;
#54 = ORIENTED_EDGE ( 'NONE', *, *, #101, .F. ) ;
#55 = FACE_OUTER_BOUND ( 'NONE', #138, .T. ) ;
#56 = DIRECTION ( 'NONE',  ( 4.275831445896958607E-31, 1.000000000000000000, 1.224646799147353207E-16 ) ) ;
#57 = APPROVAL_DATE_TIME ( #85, #167 ) ;
#58 = LOCAL_TIME ( 15, 47, 50.00000000000000000, #11 ) ;
#59 = ADVANCED_FACE ( 'NONE', ( #201 ), #30, .T. ) ;
#60 = ORIENTED_EDGE ( 'NONE', *, *, #169, .T. ) ;
#61 = APPROVAL_ROLE ( '' ) ;
#62 = FACE_OUTER_BOUND ( 'NONE', #106, .T. ) ;
#63 = FACE_OUTER_BOUND ( 'NONE', #211, .T. ) ;
#64 = ADVANCED_FACE ( 'NONE', ( #63, #1 ), #32, .T. ) ;
#65 = DIRECTION ( 'NONE',  ( 4.585547486636301698E-31, 1.000000000000000000, 1.290716872006560176E-16 ) ) ;
#66 = DIRECTION ( 'NONE',  ( 1.000000000000000000, 0.0000000000000000000, 0.0000000000000000000 ) ) ;
#67 = APPROVAL_PERSON_ORGANIZATION ( #12, #3, #84 ) ;
#68 = DATE_TIME_ROLE ( 'creation_date' ) ;
#69 = CALENDAR_DATE ( 2021, 7, 10 ) ;
#70 = AXIS2_PLACEMENT_3D ( 'NONE', #137, #159, #98 ) ;
#71 = EDGE_CURVE ( 'NONE', #176, #176, #191, .T. ) ;
#72 = ORIENTED_EDGE ( 'NONE', *, *, #169, .F. ) ;
#73 = LOCAL_TIME ( 15, 47, 50.00000000000000000, #49 ) ;
#74 = DIRECTION ( 'NONE',  ( 0.0000000000000000000, 1.000000000000000000, 0.0000000000000000000 ) ) ;
#75 =( GEOMETRIC_REPRESENTATION_CONTEXT ( 3 ) GLOBAL_UNCERTAINTY_ASSIGNED_CONTEXT ( ( #190 ) ) GLOBAL_UNIT_ASSIGNED_CONTEXT ( ( #10, #156, #195 ) ) REPRESENTATION_CONTEXT ( 'NONE', 'WORKASPACE' ) );
#76 = DIRECTION ( 'NONE',  ( -3.491481338843133355E-15, 1.224646799147353207E-16, -1.000000000000000000 ) ) ;
#77 = DIRECTION ( 'NONE',  ( -4.585547486636301698E-31, -1.000000000000000000, -1.290716872006560176E-16 ) ) ;
#78 = DIRECTION ( 'NONE',  ( 0.0000000000000000000, -1.000000000000000000, 0.0000000000000000000 ) ) ;
#79 = ORGANIZATION ( 'UNSPECIFIED', 'UNSPECIFIED', '' ) ;
#80 = CALENDAR_DATE ( 2021, 7, 10 ) ;
#81 = APPLICATION_PROTOCOL_DEFINITION ( 'international standard', 'config_control_design', 1994, #184 ) ;
#82 = DATE_AND_TIME ( #220, #40 ) ;
#83 = APPROVAL_PERSON_ORGANIZATION ( #115, #167, #61 ) ;
#84 = APPROVAL_ROLE ( '' ) ;
#85 = DATE_AND_TIME ( #131, #181 ) ;
#86 = APPLICATION_CONTEXT ( 'configuration controlled 3d designs of mechanical parts and assemblies' ) ;
#87 = CC_DESIGN_SECURITY_CLASSIFICATION ( #150, ( #38 ) ) ;
#88 = EDGE_CURVE ( 'NONE', #93, #93, #91, .T. ) ;
#89 = ORIENTED_EDGE ( 'NONE', *, *, #71, .T. ) ;
#90 = DIRECTION ( 'NONE',  ( -3.491481338843133355E-15, 1.224646799147353207E-16, -1.000000000000000000 ) ) ;
#91 = CIRCLE ( 'NONE', #160, 0.4199999999999979305 ) ;
#92 = DIRECTION ( 'NONE',  ( -3.491481338843133355E-15, 1.224646799147353207E-16, -1.000000000000000000 ) ) ;
#93 = VERTEX_POINT ( 'NONE', #147 ) ;
#94 = CC_DESIGN_APPROVAL ( #3, ( #109 ) ) ;
#95 = CARTESIAN_POINT ( 'NONE',  ( 1.047444401652940007E-13, -3.673940397442059178E-15, 30.00000000000000000 ) ) ;
#96 = DIRECTION ( 'NONE',  ( -4.275831445896958607E-31, -1.000000000000000000, -1.224646799147353207E-16 ) ) ;
#97 = VERTEX_POINT ( 'NONE', #114 ) ;
#98 = DIRECTION ( 'NONE',  ( 0.0000000000000000000, 1.000000000000000000, 0.0000000000000000000 ) ) ;
#99 = CARTESIAN_POINT ( 'NONE',  ( 8.811153282037981925E-16, 0.4199999999999975420, 0.2523614599915767198 ) ) ;
#100 = AXIS2_PLACEMENT_3D ( 'NONE', #178, #154, #143 ) ;
#101 = EDGE_CURVE ( 'NONE', #23, #23, #31, .T. ) ;
#102 = APPROVAL_DATE_TIME ( #29, #187 ) ;
#103 = SECURITY_CLASSIFICATION_LEVEL ( 'unclassified' ) ;
#104 = APPROVAL_DATE_TIME ( #82, #3 ) ;
#105 = DIRECTION ( 'NONE',  ( 3.491481338843133355E-15, -1.224646799147353207E-16, 1.000000000000000000 ) ) ;
#106 = EDGE_LOOP ( 'NONE', ( #37 ) ) ;
#107 = ORIENTED_EDGE ( 'NONE', *, *, #71, .F. ) ;
#108 = DIRECTION ( 'NONE',  ( -3.491481338843133355E-15, 1.224646799147353207E-16, -1.000000000000000000 ) ) ;
#109 = PRODUCT_DEFINITION ( 'UNKNOWN', '', #38, #18 ) ;
#110 = CARTESIAN_POINT ( 'NONE',  ( 1.040461438975253866E-13, -3.649447461459112464E-15, 29.80000000000000426 ) ) ;
#111 = DIRECTION ( 'NONE',  ( 0.0000000000000000000, 1.000000000000000000, 0.0000000000000000000 ) ) ;
#112 = PLANE ( 'NONE',  #14 ) ;
#113 = PERSON_AND_ORGANIZATION_ROLE ( 'classification_officer' ) ;
#114 = CARTESIAN_POINT ( 'NONE',  ( 2.399198204865487722E-14, 0.7499999999999954481, 6.871576766497733857 ) ) ;
#115 = PERSON_AND_ORGANIZATION ( #46, #79 ) ;
#116 = APPLICATION_PROTOCOL_DEFINITION ( 'international standard', 'config_control_design', 1994, #86 ) ;
#117 = CARTESIAN_POINT ( 'NONE',  ( 2.199633243471174014E-14, 3.149495543589874018E-33, 6.299999999999999822 ) ) ;
#118 = PERSON_AND_ORGANIZATION ( #46, #79 ) ;
#119 = COORDINATED_UNIVERSAL_TIME_OFFSET ( 1, 0, .AHEAD. ) ;
#120 = AXIS2_PLACEMENT_3D ( 'NONE', #41, #76, #65 ) ;
#121 = EDGE_LOOP ( 'NONE', ( #151 ) ) ;
#122 = EDGE_LOOP ( 'NONE', ( #2 ) ) ;
#123 = EDGE_CURVE ( 'NONE', #97, #97, #164, .T. ) ;
#124 = PLANE ( 'NONE',  #45 ) ;
#125 = LOCAL_TIME ( 15, 47, 50.00000000000000000, #182 ) ;
#126 = CARTESIAN_POINT ( 'NONE',  ( 2.199633243471174329E-14, -7.715274834628326364E-16, 6.300000000000000711 ) ) ;
#127 = FACE_BOUND ( 'NONE', #189, .T. ) ;
#128 = EDGE_CURVE ( 'NONE', #42, #42, #144, .T. ) ;
#129 = AXIS2_PLACEMENT_3D ( 'NONE', #95, #155, #186 ) ;
#130 = PERSON_AND_ORGANIZATION_ROLE ( 'creator' ) ;
#131 = CALENDAR_DATE ( 2021, 7, 10 ) ;
#132 = ADVANCED_FACE ( 'NONE', ( #62 ), #112, .F. ) ;
#133 = CIRCLE ( 'NONE', #203, 0.4199999999999979305 ) ;
#134 = EDGE_LOOP ( 'NONE', ( #72 ) ) ;
#135 = ADVANCED_FACE ( 'NONE', ( #127, #141 ), #16, .T. ) ;
#136 = AXIS2_PLACEMENT_3D ( 'NONE', #36, #108, #56 ) ;
#137 = CARTESIAN_POINT ( 'NONE',  ( 2.399198204865487722E-14, -8.415254492186769764E-16, 6.871576766497733857 ) ) ;
#138 = EDGE_LOOP ( 'NONE', ( #107 ) ) ;
#139 = COORDINATED_UNIVERSAL_TIME_OFFSET ( 1, 0, .AHEAD. ) ;
#140 = MANIFOLD_SOLID_BREP ( 'Corps-Déplacer/Copier1[2]', #148 ) ;
#141 = FACE_OUTER_BOUND ( 'NONE', #209, .T. ) ;
#142 = DIRECTION ( 'NONE',  ( -3.491481338843133355E-15, 1.224646799147353207E-16, -1.000000000000000000 ) ) ;
#143 = DIRECTION ( 'NONE',  ( 4.275831445896958607E-31, 1.000000000000000000, 1.224646799147353207E-16 ) ) ;
#144 = CIRCLE ( 'NONE', #120, 0.4199999999999975975 ) ;
#145 = DIRECTION ( 'NONE',  ( -3.491481338843133355E-15, 1.224646799147353207E-16, -1.000000000000000000 ) ) ;
#146 = CC_DESIGN_DATE_AND_TIME_ASSIGNMENT ( #197, #44, ( #150 ) ) ;
#147 = CARTESIAN_POINT ( 'NONE',  ( 2.199633243471174329E-14, 0.4199999999999972089, 6.300000000000000711 ) ) ;
#148 = CLOSED_SHELL ( 'NONE', ( #158, #64, #59 ) ) ;
#149 = DATE_AND_TIME ( #69, #125 ) ;
#150 = SECURITY_CLASSIFICATION ( '', '', #103 ) ;
#151 = ORIENTED_EDGE ( 'NONE', *, *, #101, .T. ) ;
#152 = EDGE_LOOP ( 'NONE', ( #89 ) ) ;
#153 = ADVANCED_FACE ( 'NONE', ( #198, #47 ), #217, .T. ) ;
#154 = DIRECTION ( 'NONE',  ( -3.491481338843133355E-15, 1.224646799147353207E-16, -1.000000000000000000 ) ) ;
#155 = DIRECTION ( 'NONE',  ( -3.491481338843133355E-15, 1.224646799147353207E-16, -1.000000000000000000 ) ) ;
#156 =( NAMED_UNIT ( * ) PLANE_ANGLE_UNIT ( ) SI_UNIT ( $, .RADIAN. ) );
#157 = CARTESIAN_POINT ( 'NONE',  ( 2.399198204865487722E-14, -8.415254492186769764E-16, 6.871576766497733857 ) ) ;
#158 = ADVANCED_FACE ( 'NONE', ( #5 ), #215, .T. ) ;
#159 = DIRECTION ( 'NONE',  ( -3.491481338843133355E-15, 1.224646799147353207E-16, -1.000000000000000000 ) ) ;
#160 = AXIS2_PLACEMENT_3D ( 'NONE', #126, #192, #39 ) ;
#161 = DIRECTION ( 'NONE',  ( -4.275831445896958607E-31, -1.000000000000000000, -1.224646799147353207E-16 ) ) ;
#162 = PERSON_AND_ORGANIZATION ( #46, #79 ) ;
#163 = PERSON_AND_ORGANIZATION ( #46, #79 ) ;
#164 = CIRCLE ( 'NONE', #70, 0.7499999999999963363 ) ;
#165 = PERSON_AND_ORGANIZATION ( #46, #79 ) ;
#166 = MECHANICAL_CONTEXT ( 'NONE', #184, 'mechanical' ) ;
#167 = APPROVAL ( #26, 'UNSPECIFIED' ) ;
#168 = AXIS2_PLACEMENT_3D ( 'NONE', #157, #193, #78 ) ;
#169 = EDGE_CURVE ( 'NONE', #212, #212, #133, .T. ) ;
#170 = CARTESIAN_POINT ( 'NONE',  ( 1.047444401652940007E-13, -3.673940397442059178E-15, 30.00000000000000000 ) ) ;
#171 = EDGE_LOOP ( 'NONE', ( #33 ) ) ;
#172 = ORIENTED_EDGE ( 'NONE', *, *, #128, .F. ) ;
#173 = DIRECTION ( 'NONE',  ( 3.491481338843133355E-15, -1.224646799147353207E-16, 1.000000000000000000 ) ) ;
#174 = DIRECTION ( 'NONE',  ( 4.275831445896958607E-31, 1.000000000000000000, 1.224646799147353207E-16 ) ) ;
#175 = SHAPE_DEFINITION_REPRESENTATION ( #206, #53 ) ;
#176 = VERTEX_POINT ( 'NONE', #213 ) ;
#177 = CC_DESIGN_PERSON_AND_ORGANIZATION_ASSIGNMENT ( #162, #130, ( #38 ) ) ;
#178 = CARTESIAN_POINT ( 'NONE',  ( 0.0000000000000000000, 0.0000000000000000000, 0.0000000000000000000 ) ) ;
#179 = CARTESIAN_POINT ( 'NONE',  ( 2.199633243471174014E-14, 3.149495543589874018E-33, 6.299999999999999822 ) ) ;
#180 = CARTESIAN_POINT ( 'NONE',  ( 0.0000000000000000000, 0.0000000000000000000, 0.0000000000000000000 ) ) ;
#181 = LOCAL_TIME ( 15, 47, 50.00000000000000000, #139 ) ;
#182 = COORDINATED_UNIVERSAL_TIME_OFFSET ( 1, 0, .AHEAD. ) ;
#183 = APPROVAL_STATUS ( 'not_yet_approved' ) ;
#184 = APPLICATION_CONTEXT ( 'configuration controlled 3d designs of mechanical parts and assemblies' ) ;
#185 = PERSON_AND_ORGANIZATION_ROLE ( 'design_owner' ) ;
#186 = DIRECTION ( 'NONE',  ( 0.0000000000000000000, 1.000000000000000000, 0.0000000000000000000 ) ) ;
#187 = APPROVAL ( #27, 'UNSPECIFIED' ) ;
#188 = AXIS2_PLACEMENT_3D ( 'NONE', #170, #90, #20 ) ;
#189 = EDGE_LOOP ( 'NONE', ( #204 ) ) ;
#190 = UNCERTAINTY_MEASURE_WITH_UNIT (LENGTH_MEASURE( 1.000000000000000082E-05 ), #10, 'distance_accuracy_value', 'NONE');
#191 = CIRCLE ( 'NONE', #188, 0.5499999999999990452 ) ;
#192 = DIRECTION ( 'NONE',  ( -3.491481338843133355E-15, 1.224646799147353207E-16, -1.000000000000000000 ) ) ;
#193 = DIRECTION ( 'NONE',  ( 3.491481338843133355E-15, -1.224646799147353207E-16, 1.000000000000000000 ) ) ;
#194 = CARTESIAN_POINT ( 'NONE',  ( 2.199633243471174329E-14, 0.4199999999999972089, 6.300000000000000711 ) ) ;
#195 =( NAMED_UNIT ( * ) SI_UNIT ( $, .STERADIAN. ) SOLID_ANGLE_UNIT ( ) );
#196 = FACE_BOUND ( 'NONE', #152, .T. ) ;
#197 = DATE_AND_TIME ( #80, #58 ) ;
#198 = FACE_OUTER_BOUND ( 'NONE', #171, .T. ) ;
#199 = AXIS2_PLACEMENT_3D ( 'NONE', #110, #92, #74 ) ;
#200 = PERSON_AND_ORGANIZATION ( #46, #79 ) ;
#201 = FACE_OUTER_BOUND ( 'NONE', #134, .T. ) ;
#202 = PERSON_AND_ORGANIZATION_ROLE ( 'creator' ) ;
#203 = AXIS2_PLACEMENT_3D ( 'NONE', #21, #142, #111 ) ;
#204 = ORIENTED_EDGE ( 'NONE', *, *, #88, .F. ) ;
#205 = CC_DESIGN_APPROVAL ( #167, ( #150 ) ) ;
#206 = PRODUCT_DEFINITION_SHAPE ( 'NONE', 'NONE',  #109 ) ;
#207 = EDGE_LOOP ( 'NONE', ( #60 ) ) ;
#208 = CC_DESIGN_PERSON_AND_ORGANIZATION_ASSIGNMENT ( #165, #113, ( #150 ) ) ;
#209 = EDGE_LOOP ( 'NONE', ( #19 ) ) ;
#210 = CONICAL_SURFACE ( 'NONE', #129, 0.5499999999999990452, 0.7853981633974604915 ) ;
#211 = EDGE_LOOP ( 'NONE', ( #172 ) ) ;
#212 = VERTEX_POINT ( 'NONE', #194 ) ;
#213 = CARTESIAN_POINT ( 'NONE',  ( 1.047444401652940007E-13, 0.5499999999999953815, 30.00000000000000000 ) ) ;
#214 = CARTESIAN_POINT ( 'NONE',  ( 1.047444401652940007E-13, 4.124339402320045473E-33, 30.00000000000000000 ) ) ;
#215 = CONICAL_SURFACE ( 'NONE', #9, 0.4199999999999975975, 1.029744258676649649 ) ;
#216 = CARTESIAN_POINT ( 'NONE',  ( 8.811153282037979953E-16, -3.090536542068372099E-17, 0.2523614599915766643 ) ) ;
#217 = CYLINDRICAL_SURFACE ( 'NONE', #100, 0.7499999999999978906 ) ;
#218 = MANIFOLD_SOLID_BREP ( 'Corps-Déplacer/Copier1[1]', #51 ) ;
#219 = DIRECTION ( 'NONE',  ( 0.0000000000000000000, 0.0000000000000000000, 1.000000000000000000 ) ) ;
#220 = CALENDAR_DATE ( 2021, 7, 10 ) ;
#221 = AXIS2_PLACEMENT_3D ( 'NONE', #117, #105, #96 ) ;
#222 = APPROVAL_ROLE ( '' ) ;
#223 = PRODUCT_RELATED_PRODUCT_CATEGORY ( 'detail', '', ( #15 ) ) ;
ENDSEC;
END-ISO-10303-21;
