ISO-10303-21;
HEADER;
FILE_DESCRIPTION (( 'STEP AP203' ),
    '1' );
FILE_NAME ('38252.step',
    '2021-10-07T13:47:49',
    ( '' ),
    ( '' ),
    'SwSTEP 2.0',
    'SolidWorks 2019',
    '' );
FILE_SCHEMA (( 'CONFIG_CONTROL_DESIGN' ));
ENDSEC;

DATA;
#1 = DIRECTION ( 'NONE',  ( 4.275831445896958607E-31, 1.000000000000000000, 1.224646799147353207E-16 ) ) ;
#2 = AXIS2_PLACEMENT_3D ( 'NONE', #137, #208, #20 ) ;
#3 = DIRECTION ( 'NONE',  ( 0.0000000000000000000, 1.000000000000000000, 0.0000000000000000000 ) ) ;
#4 = DIRECTION ( 'NONE',  ( -3.491481338843133355E-15, 1.224646799147353207E-16, -1.000000000000000000 ) ) ;
#5 = EDGE_LOOP ( 'NONE', ( #182 ) ) ;
#6 = PERSON ( 'UNSPECIFIED', 'UNSPECIFIED', 'UNSPECIFIED', ('UNSPECIFIED'), ('UNSPECIFIED'), ('UNSPECIFIED') ) ;
#7 = PERSON_AND_ORGANIZATION ( #6, #15 ) ;
#8 = APPLICATION_CONTEXT ( 'configuration controlled 3d designs of mechanical parts and assemblies' ) ;
#9 = FACE_OUTER_BOUND ( 'NONE', #5, .T. ) ;
#10 = LOCAL_TIME ( 15, 47, 49.00000000000000000, #160 ) ;
#11 = SECURITY_CLASSIFICATION_LEVEL ( 'unclassified' ) ;
#12 = ORIENTED_EDGE ( 'NONE', *, *, #105, .F. ) ;
#13 = FACE_BOUND ( 'NONE', #25, .T. ) ;
#14 = UNCERTAINTY_MEASURE_WITH_UNIT (LENGTH_MEASURE( 1.000000000000000082E-05 ), #55, 'distance_accuracy_value', 'NONE');
#15 = ORGANIZATION ( 'UNSPECIFIED', 'UNSPECIFIED', '' ) ;
#16 = CC_DESIGN_APPROVAL ( #140, ( #45 ) ) ;
#17 = CARTESIAN_POINT ( 'NONE',  ( 4.316773491135416470E-14, -1.514120319003271269E-15, 12.36373066958947398 ) ) ;
#18 = AXIS2_PLACEMENT_3D ( 'NONE', #173, #174, #125 ) ;
#19 = PRODUCT_RELATED_PRODUCT_CATEGORY ( 'detail', '', ( #31 ) ) ;
#20 = DIRECTION ( 'NONE',  ( 0.0000000000000000000, 1.000000000000000000, 0.0000000000000000000 ) ) ;
#21 = CARTESIAN_POINT ( 'NONE',  ( 1.326762908760390423E-13, -4.653657836759941941E-15, 38.00000000000000000 ) ) ;
#22 = CARTESIAN_POINT ( 'NONE',  ( 0.0000000000000000000, 0.0000000000000000000, 0.0000000000000000000 ) ) ;
#23 = CC_DESIGN_APPROVAL ( #146, ( #123 ) ) ;
#24 = DATE_TIME_ROLE ( 'classification_date' ) ;
#25 = EDGE_LOOP ( 'NONE', ( #12 ) ) ;
#26 = COORDINATED_UNIVERSAL_TIME_OFFSET ( 1, 0, .AHEAD. ) ;
#27 = CARTESIAN_POINT ( 'NONE',  ( 4.189777606611760026E-14, 5.924051141514287055E-33, 12.00000000000000000 ) ) ;
#28 = DESIGN_CONTEXT ( 'detailed design', #8, 'design' ) ;
#29 = CIRCLE ( 'NONE', #131, 0.8000000000000009326 ) ;
#30 = EDGE_LOOP ( 'NONE', ( #113 ) ) ;
#31 = PRODUCT ( '38252', '38252', '', ( #161 ) ) ;
#32 = PERSON_AND_ORGANIZATION ( #6, #15 ) ;
#33 = DATE_TIME_ROLE ( 'creation_date' ) ;
#34 = APPROVAL_PERSON_ORGANIZATION ( #98, #146, #127 ) ;
#35 = FACE_OUTER_BOUND ( 'NONE', #162, .T. ) ;
#36 = CARTESIAN_POINT ( 'NONE',  ( 4.189777606611760026E-14, 0.7899999999999947065, 12.00000000000000000 ) ) ;
#37 =( NAMED_UNIT ( * ) SI_UNIT ( $, .STERADIAN. ) SOLID_ANGLE_UNIT ( ) );
#38 = CARTESIAN_POINT ( 'NONE',  ( 4.189777606611760026E-14, 5.924051141514287055E-33, 12.00000000000000000 ) ) ;
#39 =( NAMED_UNIT ( * ) PLANE_ANGLE_UNIT ( ) SI_UNIT ( $, .RADIAN. ) );
#40 = CC_DESIGN_PERSON_AND_ORGANIZATION_ASSIGNMENT ( #218, #68, ( #123 ) ) ;
#41 = CIRCLE ( 'NONE', #203, 0.7899999999999962608 ) ;
#42 = LOCAL_TIME ( 15, 47, 49.00000000000000000, #26 ) ;
#43 = FACE_BOUND ( 'NONE', #64, .T. ) ;
#44 = CALENDAR_DATE ( 2021, 7, 10 ) ;
#45 = PRODUCT_DEFINITION ( 'UNKNOWN', '', #123, #28 ) ;
#46 = CALENDAR_DATE ( 2021, 7, 10 ) ;
#47 = EDGE_LOOP ( 'NONE', ( #116 ) ) ;
#48 = APPROVAL_STATUS ( 'not_yet_approved' ) ;
#49 = CC_DESIGN_DATE_AND_TIME_ASSIGNMENT ( #145, #33, ( #45 ) ) ;
#50 =( GEOMETRIC_REPRESENTATION_CONTEXT ( 3 ) GLOBAL_UNCERTAINTY_ASSIGNED_CONTEXT ( ( #14 ) ) GLOBAL_UNIT_ASSIGNED_CONTEXT ( ( #55, #39, #37 ) ) REPRESENTATION_CONTEXT ( 'NONE', 'WORKASPACE' ) );
#51 = LOCAL_TIME ( 15, 47, 49.00000000000000000, #181 ) ;
#52 = DIRECTION ( 'NONE',  ( -3.491481338843133355E-15, 1.224646799147353207E-16, -1.000000000000000000 ) ) ;
#53 = VERTEX_POINT ( 'NONE', #74 ) ;
#54 = CC_DESIGN_SECURITY_CLASSIFICATION ( #103, ( #123 ) ) ;
#55 =( LENGTH_UNIT ( ) NAMED_UNIT ( * ) SI_UNIT ( .MILLI., .METRE. ) );
#56 = ADVANCED_FACE ( 'NONE', ( #61 ), #178, .T. ) ;
#57 = CARTESIAN_POINT ( 'NONE',  ( 1.326762908760390423E-13, 0.7999999999999962697, 38.00000000000000000 ) ) ;
#58 = PRODUCT_DEFINITION_SHAPE ( 'NONE', 'NONE',  #45 ) ;
#59 = DIRECTION ( 'NONE',  ( -3.491481338843133355E-15, 1.224646799147353207E-16, -1.000000000000000000 ) ) ;
#60 = PERSON_AND_ORGANIZATION_ROLE ( 'creator' ) ;
#61 = FACE_OUTER_BOUND ( 'NONE', #176, .T. ) ;
#62 = CALENDAR_DATE ( 2021, 7, 10 ) ;
#63 = DATE_AND_TIME ( #150, #100 ) ;
#64 = EDGE_LOOP ( 'NONE', ( #216 ) ) ;
#65 = APPROVAL_ROLE ( '' ) ;
#66 = AXIS2_PLACEMENT_3D ( 'NONE', #175, #59, #156 ) ;
#67 = ORIENTED_EDGE ( 'NONE', *, *, #91, .F. ) ;
#68 = PERSON_AND_ORGANIZATION_ROLE ( 'design_supplier' ) ;
#69 = MANIFOLD_SOLID_BREP ( 'Corps-Déplacer/Copier1[1]', #85 ) ;
#70 = DIRECTION ( 'NONE',  ( 3.491481338843133355E-15, -1.224646799147353207E-16, 1.000000000000000000 ) ) ;
#71 = AXIS2_PLACEMENT_3D ( 'NONE', #38, #120, #207 ) ;
#72 = DIRECTION ( 'NONE',  ( -3.491481338843133355E-15, 1.224646799147353207E-16, -1.000000000000000000 ) ) ;
#73 = DIRECTION ( 'NONE',  ( -3.491481338843133355E-15, 1.224646799147353207E-16, -1.000000000000000000 ) ) ;
#74 = CARTESIAN_POINT ( 'NONE',  ( 4.189777606611760026E-14, 0.7899999999999947065, 12.00000000000000000 ) ) ;
#75 = EDGE_CURVE ( 'NONE', #192, #192, #144, .T. ) ;
#76 = FACE_OUTER_BOUND ( 'NONE', #30, .T. ) ;
#77 = VERTEX_POINT ( 'NONE', #57 ) ;
#78 = APPROVAL_STATUS ( 'not_yet_approved' ) ;
#79 = ADVANCED_BREP_SHAPE_REPRESENTATION ( '38252', ( #69, #219, #165 ), #50 ) ;
#80 = DATE_AND_TIME ( #44, #51 ) ;
#81 = ORIENTED_EDGE ( 'NONE', *, *, #141, .F. ) ;
#82 = CARTESIAN_POINT ( 'NONE',  ( 4.316773491135416470E-14, -1.514120319003271269E-15, 12.36373066958947398 ) ) ;
#83 = PERSON_AND_ORGANIZATION ( #6, #15 ) ;
#84 = EDGE_LOOP ( 'NONE', ( #202 ) ) ;
#85 = CLOSED_SHELL ( 'NONE', ( #89, #129, #170, #189, #151 ) ) ;
#86 = AXIS2_PLACEMENT_3D ( 'NONE', #82, #70, #222 ) ;
#87 = DIRECTION ( 'NONE',  ( -3.491481338843133355E-15, 1.224646799147353207E-16, -1.000000000000000000 ) ) ;
#88 = VERTEX_POINT ( 'NONE', #193 ) ;
#89 = ADVANCED_FACE ( 'NONE', ( #168 ), #190, .F. ) ;
#90 = CARTESIAN_POINT ( 'NONE',  ( 4.316773491135416470E-14, 0.9999999999999963363, 12.36373066958947398 ) ) ;
#91 = EDGE_CURVE ( 'NONE', #88, #88, #153, .T. ) ;
#92 = CC_DESIGN_PERSON_AND_ORGANIZATION_ASSIGNMENT ( #199, #60, ( #45 ) ) ;
#93 = APPROVAL_DATE_TIME ( #114, #104 ) ;
#94 = PERSON_AND_ORGANIZATION_ROLE ( 'creator' ) ;
#95 = ORIENTED_EDGE ( 'NONE', *, *, #91, .T. ) ;
#96 = AXIS2_PLACEMENT_3D ( 'NONE', #110, #52, #1 ) ;
#97 = DIRECTION ( 'NONE',  ( 1.000000000000000000, 0.0000000000000000000, 0.0000000000000000000 ) ) ;
#98 = PERSON_AND_ORGANIZATION ( #6, #15 ) ;
#99 = APPROVAL_PERSON_ORGANIZATION ( #7, #140, #130 ) ;
#100 = LOCAL_TIME ( 15, 47, 49.00000000000000000, #117 ) ;
#101 = DIRECTION ( 'NONE',  ( 0.0000000000000000000, 1.000000000000000000, 0.0000000000000000000 ) ) ;
#102 = CLOSED_SHELL ( 'NONE', ( #191, #186, #56 ) ) ;
#103 = SECURITY_CLASSIFICATION ( '', '', #11 ) ;
#104 = APPROVAL ( #198, 'UNSPECIFIED' ) ;
#105 = EDGE_CURVE ( 'NONE', #53, #53, #41, .T. ) ;
#106 = FACE_OUTER_BOUND ( 'NONE', #47, .T. ) ;
#107 = AXIS2_PLACEMENT_3D ( 'NONE', #210, #4, #3 ) ;
#108 = FACE_OUTER_BOUND ( 'NONE', #148, .T. ) ;
#109 = CARTESIAN_POINT ( 'NONE',  ( 1.657335974478569412E-15, -5.813152067223832691E-17, 0.4746798890317742714 ) ) ;
#110 = CARTESIAN_POINT ( 'NONE',  ( 0.0000000000000000000, 0.0000000000000000000, 0.0000000000000000000 ) ) ;
#111 = EDGE_LOOP ( 'NONE', ( #143 ) ) ;
#112 = CALENDAR_DATE ( 2021, 7, 10 ) ;
#113 = ORIENTED_EDGE ( 'NONE', *, *, #75, .F. ) ;
#114 = DATE_AND_TIME ( #46, #10 ) ;
#115 = AXIS2_PLACEMENT_3D ( 'NONE', #27, #118, #119 ) ;
#116 = ORIENTED_EDGE ( 'NONE', *, *, #149, .T. ) ;
#117 = COORDINATED_UNIVERSAL_TIME_OFFSET ( 1, 0, .AHEAD. ) ;
#118 = DIRECTION ( 'NONE',  ( 3.491481338843133355E-15, -1.224646799147353207E-16, 1.000000000000000000 ) ) ;
#119 = DIRECTION ( 'NONE',  ( -4.275831445896958607E-31, -1.000000000000000000, -1.224646799147353207E-16 ) ) ;
#120 = DIRECTION ( 'NONE',  ( 3.491481338843133355E-15, -1.224646799147353207E-16, 1.000000000000000000 ) ) ;
#121 = VERTEX_POINT ( 'NONE', #188 ) ;
#122 = CONICAL_SURFACE ( 'NONE', #2, 0.8000000000000009326, 0.7853981633974512766 ) ;
#123 = PRODUCT_DEFINITION_FORMATION_WITH_SPECIFIED_SOURCE ( 'ANY', '', #31, .NOT_KNOWN. ) ;
#124 = VERTEX_POINT ( 'NONE', #36 ) ;
#125 = DIRECTION ( 'NONE',  ( -4.875772011106961609E-31, -1.000000000000000000, -1.372407813272800387E-16 ) ) ;
#126 = AXIS2_PLACEMENT_3D ( 'NONE', #109, #185, #164 ) ;
#127 = APPROVAL_ROLE ( '' ) ;
#128 = CARTESIAN_POINT ( 'NONE',  ( 0.0000000000000000000, 0.0000000000000000000, 0.0000000000000000000 ) ) ;
#129 = ADVANCED_FACE ( 'NONE', ( #13, #9 ), #205, .T. ) ;
#130 = APPROVAL_ROLE ( '' ) ;
#131 = AXIS2_PLACEMENT_3D ( 'NONE', #21, #87, #223 ) ;
#132 = SHAPE_DEFINITION_REPRESENTATION ( #58, #79 ) ;
#133 = AXIS2_PLACEMENT_3D ( 'NONE', #22, #72, #138 ) ;
#134 = CC_DESIGN_PERSON_AND_ORGANIZATION_ASSIGNMENT ( #83, #214, ( #103 ) ) ;
#135 = CONICAL_SURFACE ( 'NONE', #18, 0.7899999999999942624, 1.029744258676649871 ) ;
#136 = CC_DESIGN_APPROVAL ( #104, ( #103 ) ) ;
#137 = CARTESIAN_POINT ( 'NONE',  ( 1.326762908760390423E-13, -4.653657836759941941E-15, 38.00000000000000000 ) ) ;
#138 = DIRECTION ( 'NONE',  ( 4.275831445896957731E-31, 1.000000000000000000, 1.224646799147353207E-16 ) ) ;
#139 = CYLINDRICAL_SURFACE ( 'NONE', #133, 0.9999999999999993339 ) ;
#140 = APPROVAL ( #78, 'UNSPECIFIED' ) ;
#141 = EDGE_CURVE ( 'NONE', #121, #121, #154, .T. ) ;
#142 = PERSON_AND_ORGANIZATION ( #6, #15 ) ;
#143 = ORIENTED_EDGE ( 'NONE', *, *, #141, .T. ) ;
#144 = CIRCLE ( 'NONE', #217, 0.9999999999999978906 ) ;
#145 = DATE_AND_TIME ( #62, #42 ) ;
#146 = APPROVAL ( #48, 'UNSPECIFIED' ) ;
#147 = APPLICATION_PROTOCOL_DEFINITION ( 'international standard', 'config_control_design', 1994, #8 ) ;
#148 = EDGE_LOOP ( 'NONE', ( #81 ) ) ;
#149 = EDGE_CURVE ( 'NONE', #124, #124, #200, .T. ) ;
#150 = CALENDAR_DATE ( 2021, 7, 10 ) ;
#151 = ADVANCED_FACE ( 'NONE', ( #187 ), #158, .F. ) ;
#152 = DIRECTION ( 'NONE',  ( -3.491481338843133355E-15, 1.224646799147353207E-16, -1.000000000000000000 ) ) ;
#153 = CIRCLE ( 'NONE', #126, 0.7899999999999942624 ) ;
#154 = CIRCLE ( 'NONE', #107, 1.000000000000000888 ) ;
#155 = DIRECTION ( 'NONE',  ( 4.275831445896958607E-31, 1.000000000000000000, 1.224646799147353207E-16 ) ) ;
#156 = DIRECTION ( 'NONE',  ( 0.0000000000000000000, 1.000000000000000000, 0.0000000000000000000 ) ) ;
#157 = FACE_OUTER_BOUND ( 'NONE', #180, .T. ) ;
#158 = PLANE ( 'NONE',  #212 ) ;
#159 = ORIENTED_EDGE ( 'NONE', *, *, #105, .T. ) ;
#160 = COORDINATED_UNIVERSAL_TIME_OFFSET ( 1, 0, .AHEAD. ) ;
#161 = MECHANICAL_CONTEXT ( 'NONE', #197, 'mechanical' ) ;
#162 = EDGE_LOOP ( 'NONE', ( #67 ) ) ;
#163 = EDGE_LOOP ( 'NONE', ( #159 ) ) ;
#164 = DIRECTION ( 'NONE',  ( 4.875772011106961609E-31, 1.000000000000000000, 1.372407813272800387E-16 ) ) ;
#165 = AXIS2_PLACEMENT_3D ( 'NONE', #128, #215, #97 ) ;
#166 = APPROVAL_PERSON_ORGANIZATION ( #213, #104, #65 ) ;
#167 = CC_DESIGN_PERSON_AND_ORGANIZATION_ASSIGNMENT ( #142, #179, ( #31 ) ) ;
#168 = FACE_OUTER_BOUND ( 'NONE', #163, .T. ) ;
#169 = CARTESIAN_POINT ( 'NONE',  ( 4.189777606611760026E-14, -1.469576158976823947E-15, 12.00000000000000000 ) ) ;
#170 = ADVANCED_FACE ( 'NONE', ( #76, #172 ), #139, .T. ) ;
#171 = CC_DESIGN_DATE_AND_TIME_ASSIGNMENT ( #63, #24, ( #103 ) ) ;
#172 = FACE_OUTER_BOUND ( 'NONE', #111, .T. ) ;
#173 = CARTESIAN_POINT ( 'NONE',  ( 1.657335974478569412E-15, -5.813152067223832691E-17, 0.4746798890317742714 ) ) ;
#174 = DIRECTION ( 'NONE',  ( 3.491481338843133355E-15, -1.224646799147353207E-16, 1.000000000000000000 ) ) ;
#175 = CARTESIAN_POINT ( 'NONE',  ( 4.189777606611760026E-14, -1.469576158976823947E-15, 12.00000000000000000 ) ) ;
#176 = EDGE_LOOP ( 'NONE', ( #196 ) ) ;
#177 = COORDINATED_UNIVERSAL_TIME_OFFSET ( 1, 0, .AHEAD. ) ;
#178 = PLANE ( 'NONE',  #115 ) ;
#179 = PERSON_AND_ORGANIZATION_ROLE ( 'design_owner' ) ;
#180 = EDGE_LOOP ( 'NONE', ( #95 ) ) ;
#181 = COORDINATED_UNIVERSAL_TIME_OFFSET ( 1, 0, .AHEAD. ) ;
#182 = ORIENTED_EDGE ( 'NONE', *, *, #75, .T. ) ;
#183 = APPROVAL_DATE_TIME ( #80, #146 ) ;
#184 = DIRECTION ( 'NONE',  ( -3.491481338843133355E-15, 1.224646799147353207E-16, -1.000000000000000000 ) ) ;
#185 = DIRECTION ( 'NONE',  ( -3.491481338843133355E-15, 1.224646799147353207E-16, -1.000000000000000000 ) ) ;
#186 = ADVANCED_FACE ( 'NONE', ( #35, #106 ), #206, .T. ) ;
#187 = FACE_OUTER_BOUND ( 'NONE', #84, .T. ) ;
#188 = CARTESIAN_POINT ( 'NONE',  ( 1.319779946082704535E-13, 0.9999999999999963363, 37.79999999999999716 ) ) ;
#189 = ADVANCED_FACE ( 'NONE', ( #108, #43 ), #122, .T. ) ;
#190 = PLANE ( 'NONE',  #71 ) ;
#191 = ADVANCED_FACE ( 'NONE', ( #157 ), #135, .T. ) ;
#192 = VERTEX_POINT ( 'NONE', #90 ) ;
#193 = CARTESIAN_POINT ( 'NONE',  ( 1.657335974478569807E-15, 0.7899999999999941513, 0.4746798890317743824 ) ) ;
#194 = CC_DESIGN_PERSON_AND_ORGANIZATION_ASSIGNMENT ( #32, #94, ( #123 ) ) ;
#195 = APPLICATION_PROTOCOL_DEFINITION ( 'international standard', 'config_control_design', 1994, #197 ) ;
#196 = ORIENTED_EDGE ( 'NONE', *, *, #149, .F. ) ;
#197 = APPLICATION_CONTEXT ( 'configuration controlled 3d designs of mechanical parts and assemblies' ) ;
#198 = APPROVAL_STATUS ( 'not_yet_approved' ) ;
#199 = PERSON_AND_ORGANIZATION ( #6, #15 ) ;
#200 = CIRCLE ( 'NONE', #66, 0.7899999999999962608 ) ;
#201 = APPROVAL_DATE_TIME ( #211, #140 ) ;
#202 = ORIENTED_EDGE ( 'NONE', *, *, #204, .F. ) ;
#203 = AXIS2_PLACEMENT_3D ( 'NONE', #169, #152, #220 ) ;
#204 = EDGE_CURVE ( 'NONE', #77, #77, #29, .T. ) ;
#205 = CONICAL_SURFACE ( 'NONE', #86, 0.9999999999999978906, 0.5235987755982909331 ) ;
#206 = CYLINDRICAL_SURFACE ( 'NONE', #96, 0.7899999999999952616 ) ;
#207 = DIRECTION ( 'NONE',  ( -4.275831445896958607E-31, -1.000000000000000000, -1.224646799147353207E-16 ) ) ;
#208 = DIRECTION ( 'NONE',  ( -3.491481338843133355E-15, 1.224646799147353207E-16, -1.000000000000000000 ) ) ;
#209 = CARTESIAN_POINT ( 'NONE',  ( 1.326762908760390423E-13, 5.999039130647367482E-33, 38.00000000000000000 ) ) ;
#210 = CARTESIAN_POINT ( 'NONE',  ( 1.319779946082704535E-13, -4.629164900776995227E-15, 37.79999999999999716 ) ) ;
#211 = DATE_AND_TIME ( #112, #221 ) ;
#212 = AXIS2_PLACEMENT_3D ( 'NONE', #209, #73, #155 ) ;
#213 = PERSON_AND_ORGANIZATION ( #6, #15 ) ;
#214 = PERSON_AND_ORGANIZATION_ROLE ( 'classification_officer' ) ;
#215 = DIRECTION ( 'NONE',  ( 0.0000000000000000000, 0.0000000000000000000, 1.000000000000000000 ) ) ;
#216 = ORIENTED_EDGE ( 'NONE', *, *, #204, .T. ) ;
#217 = AXIS2_PLACEMENT_3D ( 'NONE', #17, #184, #101 ) ;
#218 = PERSON_AND_ORGANIZATION ( #6, #15 ) ;
#219 = MANIFOLD_SOLID_BREP ( 'Corps-Déplacer/Copier1[2]', #102 ) ;
#220 = DIRECTION ( 'NONE',  ( 0.0000000000000000000, 1.000000000000000000, 0.0000000000000000000 ) ) ;
#221 = LOCAL_TIME ( 15, 47, 49.00000000000000000, #177 ) ;
#222 = DIRECTION ( 'NONE',  ( 0.0000000000000000000, -1.000000000000000000, 0.0000000000000000000 ) ) ;
#223 = DIRECTION ( 'NONE',  ( 0.0000000000000000000, 1.000000000000000000, 0.0000000000000000000 ) ) ;
ENDSEC;
END-ISO-10303-21;
