ISO-10303-21;
HEADER;
FILE_DESCRIPTION (( 'STEP AP203' ),
    '1' );
FILE_NAME ('38251.step',
    '2021-10-07T13:47:49',
    ( '' ),
    ( '' ),
    'SwSTEP 2.0',
    'SolidWorks 2019',
    '' );
FILE_SCHEMA (( 'CONFIG_CONTROL_DESIGN' ));
ENDSEC;

DATA;
#1 = CARTESIAN_POINT ( 'NONE',  ( 9.125837327825067182E-16, -3.200912847142248386E-17, 0.2613743692769905924 ) ) ;
#2 = DIRECTION ( 'NONE',  ( -4.275831445896958607E-31, -1.000000000000000000, -1.224646799147353207E-16 ) ) ;
#3 = PRODUCT_DEFINITION_FORMATION_WITH_SPECIFIED_SOURCE ( 'ANY', '', #35, .NOT_KNOWN. ) ;
#4 = FACE_OUTER_BOUND ( 'NONE', #130, .T. ) ;
#5 = COORDINATED_UNIVERSAL_TIME_OFFSET ( 1, 0, .AHEAD. ) ;
#6 = ORIENTED_EDGE ( 'NONE', *, *, #86, .F. ) ;
#7 = PERSON_AND_ORGANIZATION_ROLE ( 'design_owner' ) ;
#8 = DATE_AND_TIME ( #212, #45 ) ;
#9 = EDGE_LOOP ( 'NONE', ( #124 ) ) ;
#10 = PERSON_AND_ORGANIZATION_ROLE ( 'creator' ) ;
#11 = EDGE_LOOP ( 'NONE', ( #210 ) ) ;
#12 = DIRECTION ( 'NONE',  ( 3.491481338843133355E-15, -1.224646799147353207E-16, 1.000000000000000000 ) ) ;
#13 = DIRECTION ( 'NONE',  ( 0.0000000000000000000, 1.000000000000000000, 0.0000000000000000000 ) ) ;
#14 = SECURITY_CLASSIFICATION ( '', '', #91 ) ;
#15 = ADVANCED_FACE ( 'NONE', ( #198, #106 ), #23, .T. ) ;
#16 = UNCERTAINTY_MEASURE_WITH_UNIT (LENGTH_MEASURE( 1.000000000000000082E-05 ), #139, 'distance_accuracy_value', 'NONE');
#17 = CARTESIAN_POINT ( 'NONE',  ( 1.040461438975253740E-13, -3.649447461459112464E-15, 29.80000000000000071 ) ) ;
#18 = FACE_OUTER_BOUND ( 'NONE', #175, .T. ) ;
#19 = VERTEX_POINT ( 'NONE', #51 ) ;
#20 = CONICAL_SURFACE ( 'NONE', #116, 0.7499999999999973355, 0.5235987755982925984 ) ;
#21 = FACE_BOUND ( 'NONE', #39, .T. ) ;
#22 = COORDINATED_UNIVERSAL_TIME_OFFSET ( 1, 0, .AHEAD. ) ;
#23 = CYLINDRICAL_SURFACE ( 'NONE', #216, 0.7499999999999986677 ) ;
#24 = DATE_TIME_ROLE ( 'creation_date' ) ;
#25 = ORIENTED_EDGE ( 'NONE', *, *, #86, .T. ) ;
#26 = APPROVAL_STATUS ( 'not_yet_approved' ) ;
#27 = CIRCLE ( 'NONE', #94, 0.7500000000000000000 ) ;
#28 = ORIENTED_EDGE ( 'NONE', *, *, #44, .T. ) ;
#29 = CALENDAR_DATE ( 2021, 7, 10 ) ;
#30 = APPLICATION_PROTOCOL_DEFINITION ( 'international standard', 'config_control_design', 1994, #61 ) ;
#31 = APPLICATION_CONTEXT ( 'configuration controlled 3d designs of mechanical parts and assemblies' ) ;
#32 = FACE_OUTER_BOUND ( 'NONE', #57, .T. ) ;
#33 = CARTESIAN_POINT ( 'NONE',  ( 2.669445577364105562E-14, -9.363154674342902778E-16, 7.645596004384199951 ) ) ;
#34 = CARTESIAN_POINT ( 'NONE',  ( 2.669445577364105562E-14, 0.7499999999999963363, 7.645596004384199951 ) ) ;
#35 = PRODUCT ( '38251', '38251', '', ( #107 ) ) ;
#36 = FACE_BOUND ( 'NONE', #9, .T. ) ;
#37 = AXIS2_PLACEMENT_3D ( 'NONE', #103, #157, #100 ) ;
#38 = VERTEX_POINT ( 'NONE', #101 ) ;
#39 = EDGE_LOOP ( 'NONE', ( #215 ) ) ;
#40 = PERSON_AND_ORGANIZATION_ROLE ( 'classification_officer' ) ;
#41 = APPROVAL_PERSON_ORGANIZATION ( #123, #114, #71 ) ;
#42 = PERSON_AND_ORGANIZATION ( #76, #160 ) ;
#43 = APPROVAL_STATUS ( 'not_yet_approved' ) ;
#44 = EDGE_CURVE ( 'NONE', #140, #140, #142, .T. ) ;
#45 = LOCAL_TIME ( 15, 47, 49.00000000000000000, #162 ) ;
#46 = CC_DESIGN_APPROVAL ( #154, ( #184 ) ) ;
#47 = CC_DESIGN_APPROVAL ( #146, ( #14 ) ) ;
#48 = PLANE ( 'NONE',  #155 ) ;
#49 = DIRECTION ( 'NONE',  ( -3.491481338843133355E-15, 1.224646799147353207E-16, -1.000000000000000000 ) ) ;
#50 = DIRECTION ( 'NONE',  ( 3.491481338843133355E-15, -1.224646799147353207E-16, 1.000000000000000000 ) ) ;
#51 = CARTESIAN_POINT ( 'NONE',  ( 1.040461438975253740E-13, 0.7499999999999963363, 29.80000000000000071 ) ) ;
#52 = PERSON_AND_ORGANIZATION_ROLE ( 'creator' ) ;
#53 = DATE_AND_TIME ( #59, #148 ) ;
#54 = ORIENTED_EDGE ( 'NONE', *, *, #97, .T. ) ;
#55 =( NAMED_UNIT ( * ) PLANE_ANGLE_UNIT ( ) SI_UNIT ( $, .RADIAN. ) );
#56 = APPROVAL_PERSON_ORGANIZATION ( #42, #154, #218 ) ;
#57 = EDGE_LOOP ( 'NONE', ( #213 ) ) ;
#58 = LOCAL_TIME ( 15, 47, 49.00000000000000000, #129 ) ;
#59 = CALENDAR_DATE ( 2021, 7, 10 ) ;
#60 = EDGE_LOOP ( 'NONE', ( #6 ) ) ;
#61 = APPLICATION_CONTEXT ( 'configuration controlled 3d designs of mechanical parts and assemblies' ) ;
#62 = AXIS2_PLACEMENT_3D ( 'NONE', #150, #12, #74 ) ;
#63 = MANIFOLD_SOLID_BREP ( 'Corps-Déplacer/Copier1[2]', #179 ) ;
#64 = DIRECTION ( 'NONE',  ( 0.0000000000000000000, 1.000000000000000000, 0.0000000000000000000 ) ) ;
#65 = ADVANCED_BREP_SHAPE_REPRESENTATION ( '38251', ( #211, #63, #126 ), #96 ) ;
#66 = DIRECTION ( 'NONE',  ( -3.491481338843133355E-15, 1.224646799147353207E-16, -1.000000000000000000 ) ) ;
#67 = DIRECTION ( 'NONE',  ( 4.427425159510903739E-31, 1.000000000000000000, 1.246209393661504056E-16 ) ) ;
#68 = CONICAL_SURFACE ( 'NONE', #37, 0.4349999999999983880, 1.029744258676649649 ) ;
#69 = VERTEX_POINT ( 'NONE', #105 ) ;
#70 = CARTESIAN_POINT ( 'NONE',  ( 2.669445577364105562E-14, -9.363154674342902778E-16, 7.645596004384199951 ) ) ;
#71 = APPROVAL_ROLE ( '' ) ;
#72 = CC_DESIGN_PERSON_AND_ORGANIZATION_ASSIGNMENT ( #197, #10, ( #3 ) ) ;
#73 = CARTESIAN_POINT ( 'NONE',  ( 0.0000000000000000000, 0.0000000000000000000, 0.0000000000000000000 ) ) ;
#74 = DIRECTION ( 'NONE',  ( -4.275831445896958607E-31, -1.000000000000000000, -1.224646799147353207E-16 ) ) ;
#75 = DATE_TIME_ROLE ( 'classification_date' ) ;
#76 = PERSON ( 'UNSPECIFIED', 'UNSPECIFIED', 'UNSPECIFIED', ('UNSPECIFIED'), ('UNSPECIFIED'), ('UNSPECIFIED') ) ;
#77 = CIRCLE ( 'NONE', #80, 0.7499999999999973355 ) ;
#78 = CC_DESIGN_PERSON_AND_ORGANIZATION_ASSIGNMENT ( #176, #7, ( #35 ) ) ;
#79 = ADVANCED_FACE ( 'NONE', ( #152 ), #189, .F. ) ;
#80 = AXIS2_PLACEMENT_3D ( 'NONE', #33, #170, #206 ) ;
#81 = ADVANCED_FACE ( 'NONE', ( #138, #21 ), #200, .T. ) ;
#82 = AXIS2_PLACEMENT_3D ( 'NONE', #205, #159, #223 ) ;
#83 = DIRECTION ( 'NONE',  ( 0.0000000000000000000, -1.000000000000000000, 0.0000000000000000000 ) ) ;
#84 = DIRECTION ( 'NONE',  ( 4.275831445896958607E-31, 1.000000000000000000, 1.224646799147353207E-16 ) ) ;
#85 = CARTESIAN_POINT ( 'NONE',  ( 2.478951750578624367E-14, 0.4349999999999987765, 7.099999999999999645 ) ) ;
#86 = EDGE_CURVE ( 'NONE', #190, #190, #77, .T. ) ;
#87 = FACE_OUTER_BOUND ( 'NONE', #177, .T. ) ;
#88 = PERSON_AND_ORGANIZATION ( #76, #160 ) ;
#89 = CARTESIAN_POINT ( 'NONE',  ( 0.0000000000000000000, 0.0000000000000000000, 0.0000000000000000000 ) ) ;
#90 = COORDINATED_UNIVERSAL_TIME_OFFSET ( 1, 0, .AHEAD. ) ;
#91 = SECURITY_CLASSIFICATION_LEVEL ( 'unclassified' ) ;
#92 = DATE_AND_TIME ( #182, #58 ) ;
#93 = ORIENTED_EDGE ( 'NONE', *, *, #199, .F. ) ;
#94 = AXIS2_PLACEMENT_3D ( 'NONE', #17, #191, #64 ) ;
#95 = PRODUCT_RELATED_PRODUCT_CATEGORY ( 'detail', '', ( #35 ) ) ;
#96 =( GEOMETRIC_REPRESENTATION_CONTEXT ( 3 ) GLOBAL_UNCERTAINTY_ASSIGNED_CONTEXT ( ( #16 ) ) GLOBAL_UNIT_ASSIGNED_CONTEXT ( ( #139, #55, #108 ) ) REPRESENTATION_CONTEXT ( 'NONE', 'WORKASPACE' ) );
#97 = EDGE_CURVE ( 'NONE', #19, #19, #27, .T. ) ;
#98 = CARTESIAN_POINT ( 'NONE',  ( 1.047444401652940007E-13, 0.5499999999999963807, 30.00000000000000000 ) ) ;
#99 = AXIS2_PLACEMENT_3D ( 'NONE', #220, #167, #13 ) ;
#100 = DIRECTION ( 'NONE',  ( -4.427425159510903739E-31, -1.000000000000000000, -1.246209393661504056E-16 ) ) ;
#101 = CARTESIAN_POINT ( 'NONE',  ( 2.478951750578624367E-14, 0.4349999999999987765, 7.099999999999999645 ) ) ;
#102 = ADVANCED_FACE ( 'NONE', ( #87, #32 ), #115, .T. ) ;
#103 = CARTESIAN_POINT ( 'NONE',  ( 9.125837327825067182E-16, -3.200912847142248386E-17, 0.2613743692769905924 ) ) ;
#104 = CIRCLE ( 'NONE', #82, 0.4349999999999996092 ) ;
#105 = CARTESIAN_POINT ( 'NONE',  ( 9.125837327825069154E-16, 0.4349999999999983324, 0.2613743692769906479 ) ) ;
#106 = FACE_OUTER_BOUND ( 'NONE', #194, .T. ) ;
#107 = MECHANICAL_CONTEXT ( 'NONE', #31, 'mechanical' ) ;
#108 =( NAMED_UNIT ( * ) SI_UNIT ( $, .STERADIAN. ) SOLID_ANGLE_UNIT ( ) );
#109 = CIRCLE ( 'NONE', #151, 0.4349999999999983880 ) ;
#110 = DIRECTION ( 'NONE',  ( 1.000000000000000000, 0.0000000000000000000, 0.0000000000000000000 ) ) ;
#111 = DATE_AND_TIME ( #143, #217 ) ;
#112 = APPROVAL_DATE_TIME ( #53, #154 ) ;
#113 = DIRECTION ( 'NONE',  ( -3.491481338843133355E-15, 1.224646799147353207E-16, -1.000000000000000000 ) ) ;
#114 = APPROVAL ( #26, 'UNSPECIFIED' ) ;
#115 = CYLINDRICAL_SURFACE ( 'NONE', #203, 0.4349999999999989986 ) ;
#116 = AXIS2_PLACEMENT_3D ( 'NONE', #70, #187, #83 ) ;
#117 = CC_DESIGN_DATE_AND_TIME_ASSIGNMENT ( #111, #24, ( #184 ) ) ;
#118 = DIRECTION ( 'NONE',  ( -3.491481338843133355E-15, 1.224646799147353207E-16, -1.000000000000000000 ) ) ;
#119 = PLANE ( 'NONE',  #121 ) ;
#120 = DIRECTION ( 'NONE',  ( 0.0000000000000000000, 1.000000000000000000, 0.0000000000000000000 ) ) ;
#121 = AXIS2_PLACEMENT_3D ( 'NONE', #172, #50, #2 ) ;
#122 = EDGE_LOOP ( 'NONE', ( #219 ) ) ;
#123 = PERSON_AND_ORGANIZATION ( #76, #160 ) ;
#124 = ORIENTED_EDGE ( 'NONE', *, *, #44, .F. ) ;
#125 = PERSON_AND_ORGANIZATION ( #76, #160 ) ;
#126 = AXIS2_PLACEMENT_3D ( 'NONE', #73, #193, #110 ) ;
#127 = CC_DESIGN_SECURITY_CLASSIFICATION ( #14, ( #3 ) ) ;
#128 = CC_DESIGN_DATE_AND_TIME_ASSIGNMENT ( #181, #75, ( #14 ) ) ;
#129 = COORDINATED_UNIVERSAL_TIME_OFFSET ( 1, 0, .AHEAD. ) ;
#130 = EDGE_LOOP ( 'NONE', ( #25 ) ) ;
#131 = APPROVAL_DATE_TIME ( #8, #114 ) ;
#132 = ORIENTED_EDGE ( 'NONE', *, *, #168, .F. ) ;
#133 = CC_DESIGN_PERSON_AND_ORGANIZATION_ASSIGNMENT ( #125, #52, ( #184 ) ) ;
#134 = AXIS2_PLACEMENT_3D ( 'NONE', #156, #66, #120 ) ;
#135 = AXIS2_PLACEMENT_3D ( 'NONE', #137, #49, #201 ) ;
#136 = CARTESIAN_POINT ( 'NONE',  ( 1.047444401652940007E-13, 4.124339402320052999E-33, 30.00000000000000000 ) ) ;
#137 = CARTESIAN_POINT ( 'NONE',  ( 1.047444401652940007E-13, -3.673940397442059178E-15, 30.00000000000000000 ) ) ;
#138 = FACE_OUTER_BOUND ( 'NONE', #11, .T. ) ;
#139 =( LENGTH_UNIT ( ) NAMED_UNIT ( * ) SI_UNIT ( .MILLI., .METRE. ) );
#140 = VERTEX_POINT ( 'NONE', #85 ) ;
#141 = PERSON_AND_ORGANIZATION_ROLE ( 'design_supplier' ) ;
#142 = CIRCLE ( 'NONE', #99, 0.4349999999999996092 ) ;
#143 = CALENDAR_DATE ( 2021, 7, 10 ) ;
#144 = ORIENTED_EDGE ( 'NONE', *, *, #149, .F. ) ;
#145 = ADVANCED_FACE ( 'NONE', ( #18 ), #119, .T. ) ;
#146 = APPROVAL ( #147, 'UNSPECIFIED' ) ;
#147 = APPROVAL_STATUS ( 'not_yet_approved' ) ;
#148 = LOCAL_TIME ( 15, 47, 49.00000000000000000, #22 ) ;
#149 = EDGE_CURVE ( 'NONE', #38, #38, #104, .T. ) ;
#150 = CARTESIAN_POINT ( 'NONE',  ( 2.478951750578624367E-14, 3.261977527289524423E-33, 7.099999999999999645 ) ) ;
#151 = AXIS2_PLACEMENT_3D ( 'NONE', #1, #173, #67 ) ;
#152 = FACE_OUTER_BOUND ( 'NONE', #178, .T. ) ;
#153 = SHAPE_DEFINITION_REPRESENTATION ( #180, #65 ) ;
#154 = APPROVAL ( #43, 'UNSPECIFIED' ) ;
#155 = AXIS2_PLACEMENT_3D ( 'NONE', #136, #118, #84 ) ;
#156 = CARTESIAN_POINT ( 'NONE',  ( 1.047444401652940007E-13, -3.673940397442059178E-15, 30.00000000000000000 ) ) ;
#157 = DIRECTION ( 'NONE',  ( 3.491481338843133355E-15, -1.224646799147353207E-16, 1.000000000000000000 ) ) ;
#158 = ADVANCED_FACE ( 'NONE', ( #192 ), #48, .F. ) ;
#159 = DIRECTION ( 'NONE',  ( -3.491481338843133355E-15, 1.224646799147353207E-16, -1.000000000000000000 ) ) ;
#160 = ORGANIZATION ( 'UNSPECIFIED', 'UNSPECIFIED', '' ) ;
#161 = CARTESIAN_POINT ( 'NONE',  ( 0.0000000000000000000, 0.0000000000000000000, 0.0000000000000000000 ) ) ;
#162 = COORDINATED_UNIVERSAL_TIME_OFFSET ( 1, 0, .AHEAD. ) ;
#163 = PERSON_AND_ORGANIZATION ( #76, #160 ) ;
#164 = APPROVAL_PERSON_ORGANIZATION ( #163, #146, #214 ) ;
#165 = EDGE_LOOP ( 'NONE', ( #132 ) ) ;
#166 = APPROVAL_DATE_TIME ( #92, #146 ) ;
#167 = DIRECTION ( 'NONE',  ( -3.491481338843133355E-15, 1.224646799147353207E-16, -1.000000000000000000 ) ) ;
#168 = EDGE_CURVE ( 'NONE', #185, #185, #186, .T. ) ;
#169 = LOCAL_TIME ( 15, 47, 49.00000000000000000, #90 ) ;
#170 = DIRECTION ( 'NONE',  ( -3.491481338843133355E-15, 1.224646799147353207E-16, -1.000000000000000000 ) ) ;
#171 = CC_DESIGN_APPROVAL ( #114, ( #3 ) ) ;
#172 = CARTESIAN_POINT ( 'NONE',  ( 2.478951750578624367E-14, 3.261977527289524423E-33, 7.099999999999999645 ) ) ;
#173 = DIRECTION ( 'NONE',  ( -3.491481338843133355E-15, 1.224646799147353207E-16, -1.000000000000000000 ) ) ;
#174 = DIRECTION ( 'NONE',  ( 4.275831445896958607E-31, 1.000000000000000000, 1.224646799147353207E-16 ) ) ;
#175 = EDGE_LOOP ( 'NONE', ( #144 ) ) ;
#176 = PERSON_AND_ORGANIZATION ( #76, #160 ) ;
#177 = EDGE_LOOP ( 'NONE', ( #93 ) ) ;
#178 = EDGE_LOOP ( 'NONE', ( #28 ) ) ;
#179 = CLOSED_SHELL ( 'NONE', ( #222, #102, #145 ) ) ;
#180 = PRODUCT_DEFINITION_SHAPE ( 'NONE', 'NONE',  #184 ) ;
#181 = DATE_AND_TIME ( #29, #169 ) ;
#182 = CALENDAR_DATE ( 2021, 7, 10 ) ;
#183 = DIRECTION ( 'NONE',  ( 4.275831445896959482E-31, 1.000000000000000000, 1.224646799147353207E-16 ) ) ;
#184 = PRODUCT_DEFINITION ( 'UNKNOWN', '', #3, #195 ) ;
#185 = VERTEX_POINT ( 'NONE', #98 ) ;
#186 = CIRCLE ( 'NONE', #135, 0.5500000000000000444 ) ;
#187 = DIRECTION ( 'NONE',  ( 3.491481338843133355E-15, -1.224646799147353207E-16, 1.000000000000000000 ) ) ;
#188 = ADVANCED_FACE ( 'NONE', ( #36, #4 ), #20, .T. ) ;
#189 = PLANE ( 'NONE',  #62 ) ;
#190 = VERTEX_POINT ( 'NONE', #34 ) ;
#191 = DIRECTION ( 'NONE',  ( -3.491481338843133355E-15, 1.224646799147353207E-16, -1.000000000000000000 ) ) ;
#192 = FACE_OUTER_BOUND ( 'NONE', #165, .T. ) ;
#193 = DIRECTION ( 'NONE',  ( 0.0000000000000000000, 0.0000000000000000000, 1.000000000000000000 ) ) ;
#194 = EDGE_LOOP ( 'NONE', ( #54 ) ) ;
#195 = DESIGN_CONTEXT ( 'detailed design', #61, 'design' ) ;
#196 = APPLICATION_PROTOCOL_DEFINITION ( 'international standard', 'config_control_design', 1994, #31 ) ;
#197 = PERSON_AND_ORGANIZATION ( #76, #160 ) ;
#198 = FACE_OUTER_BOUND ( 'NONE', #60, .T. ) ;
#199 = EDGE_CURVE ( 'NONE', #69, #69, #109, .T. ) ;
#200 = CONICAL_SURFACE ( 'NONE', #134, 0.5500000000000000444, 0.7853981633974512766 ) ;
#201 = DIRECTION ( 'NONE',  ( 0.0000000000000000000, 1.000000000000000000, 0.0000000000000000000 ) ) ;
#202 = DIRECTION ( 'NONE',  ( -3.491481338843133355E-15, 1.224646799147353207E-16, -1.000000000000000000 ) ) ;
#203 = AXIS2_PLACEMENT_3D ( 'NONE', #161, #202, #174 ) ;
#204 = FACE_OUTER_BOUND ( 'NONE', #122, .T. ) ;
#205 = CARTESIAN_POINT ( 'NONE',  ( 2.478951750578624367E-14, -8.694992273946207746E-16, 7.099999999999999645 ) ) ;
#206 = DIRECTION ( 'NONE',  ( 0.0000000000000000000, 1.000000000000000000, 0.0000000000000000000 ) ) ;
#207 = PERSON_AND_ORGANIZATION ( #76, #160 ) ;
#208 = CLOSED_SHELL ( 'NONE', ( #79, #188, #15, #81, #158 ) ) ;
#209 = CC_DESIGN_PERSON_AND_ORGANIZATION_ASSIGNMENT ( #207, #40, ( #14 ) ) ;
#210 = ORIENTED_EDGE ( 'NONE', *, *, #97, .F. ) ;
#211 = MANIFOLD_SOLID_BREP ( 'Corps-Déplacer/Copier1[1]', #208 ) ;
#212 = CALENDAR_DATE ( 2021, 7, 10 ) ;
#213 = ORIENTED_EDGE ( 'NONE', *, *, #149, .T. ) ;
#214 = APPROVAL_ROLE ( '' ) ;
#215 = ORIENTED_EDGE ( 'NONE', *, *, #168, .T. ) ;
#216 = AXIS2_PLACEMENT_3D ( 'NONE', #89, #113, #183 ) ;
#217 = LOCAL_TIME ( 15, 47, 49.00000000000000000, #5 ) ;
#218 = APPROVAL_ROLE ( '' ) ;
#219 = ORIENTED_EDGE ( 'NONE', *, *, #199, .T. ) ;
#220 = CARTESIAN_POINT ( 'NONE',  ( 2.478951750578624367E-14, -8.694992273946207746E-16, 7.099999999999999645 ) ) ;
#221 = CC_DESIGN_PERSON_AND_ORGANIZATION_ASSIGNMENT ( #88, #141, ( #3 ) ) ;
#222 = ADVANCED_FACE ( 'NONE', ( #204 ), #68, .T. ) ;
#223 = DIRECTION ( 'NONE',  ( 0.0000000000000000000, 1.000000000000000000, 0.0000000000000000000 ) ) ;
ENDSEC;
END-ISO-10303-21;
