ISO-10303-21;
HEADER;
FILE_DESCRIPTION (( 'STEP AP203' ),
    '1' );
FILE_NAME ('38247.step',
    '2021-10-07T13:47:48',
    ( '' ),
    ( '' ),
    'SwSTEP 2.0',
    'SolidWorks 2019',
    '' );
FILE_SCHEMA (( 'CONFIG_CONTROL_DESIGN' ));
ENDSEC;

DATA;
#1 = EDGE_LOOP ( 'NONE', ( #172 ) ) ;
#2 = PLANE ( 'NONE',  #42 ) ;
#3 = CC_DESIGN_PERSON_AND_ORGANIZATION_ASSIGNMENT ( #208, #54, ( #9 ) ) ;
#4 = CC_DESIGN_DATE_AND_TIME_ASSIGNMENT ( #135, #205, ( #91 ) ) ;
#5 = FACE_OUTER_BOUND ( 'NONE', #102, .T. ) ;
#6 = FACE_BOUND ( 'NONE', #144, .T. ) ;
#7 = CONICAL_SURFACE ( 'NONE', #133, 0.3999999999999986899, 0.7853981633974504994 ) ;
#8 = DIRECTION ( 'NONE',  ( -4.275831445896958607E-31, -1.000000000000000000, -1.224646799147353207E-16 ) ) ;
#9 = PRODUCT_DEFINITION_FORMATION_WITH_SPECIFIED_SOURCE ( 'ANY', '', #107, .NOT_KNOWN. ) ;
#10 = FACE_BOUND ( 'NONE', #75, .T. ) ;
#11 = APPROVAL ( #50, 'UNSPECIFIED' ) ;
#12 = APPLICATION_PROTOCOL_DEFINITION ( 'international standard', 'config_control_design', 1994, #132 ) ;
#13 =( NAMED_UNIT ( * ) PLANE_ANGLE_UNIT ( ) SI_UNIT ( $, .RADIAN. ) );
#14 = VERTEX_POINT ( 'NONE', #181 ) ;
#15 = CARTESIAN_POINT ( 'NONE',  ( 6.398575597670452861E-16, 0.3049999999999989386, 0.1832624888034073141 ) ) ;
#16 = MECHANICAL_CONTEXT ( 'NONE', #132, 'mechanical' ) ;
#17 = CIRCLE ( 'NONE', #146, 0.3999999999999986899 ) ;
#18 = EDGE_CURVE ( 'NONE', #198, #198, #17, .T. ) ;
#19 = SECURITY_CLASSIFICATION ( '', '', #170 ) ;
#20 = DATE_AND_TIME ( #154, #157 ) ;
#21 = SHAPE_DEFINITION_REPRESENTATION ( #51, #201 ) ;
#22 = CONICAL_SURFACE ( 'NONE', #153, 0.4999999999999970024, 0.2617993877991429130 ) ;
#23 = EDGE_LOOP ( 'NONE', ( #101 ) ) ;
#24 = DIRECTION ( 'NONE',  ( 0.0000000000000000000, 1.000000000000000000, 0.0000000000000000000 ) ) ;
#25 = ADVANCED_FACE ( 'NONE', ( #212, #203 ), #216, .T. ) ;
#26 = EDGE_LOOP ( 'NONE', ( #160 ) ) ;
#27 = CARTESIAN_POINT ( 'NONE',  ( 1.745740669421566678E-14, -6.123233995736766282E-16, 5.000000000000000000 ) ) ;
#28 = FACE_OUTER_BOUND ( 'NONE', #174, .T. ) ;
#29 =( NAMED_UNIT ( * ) SI_UNIT ( $, .STERADIAN. ) SOLID_ANGLE_UNIT ( ) );
#30 = COORDINATED_UNIVERSAL_TIME_OFFSET ( 1, 0, .AHEAD. ) ;
#31 = AXIS2_PLACEMENT_3D ( 'NONE', #116, #217, #167 ) ;
#32 = CC_DESIGN_PERSON_AND_ORGANIZATION_ASSIGNMENT ( #33, #83, ( #9 ) ) ;
#33 = PERSON_AND_ORGANIZATION ( #48, #207 ) ;
#34 = APPROVAL_PERSON_ORGANIZATION ( #55, #45, #120 ) ;
#35 = APPROVAL_DATE_TIME ( #121, #45 ) ;
#36 = EDGE_LOOP ( 'NONE', ( #104 ) ) ;
#37 = DIRECTION ( 'NONE',  ( 0.0000000000000000000, 1.000000000000000000, 0.0000000000000000000 ) ) ;
#38 = ORIENTED_EDGE ( 'NONE', *, *, #161, .F. ) ;
#39 = DIRECTION ( 'NONE',  ( -4.275831445896958607E-31, -1.000000000000000000, -1.224646799147353207E-16 ) ) ;
#40 = DIRECTION ( 'NONE',  ( 3.491481338843133355E-15, -1.224646799147353207E-16, 1.000000000000000000 ) ) ;
#41 = CARTESIAN_POINT ( 'NONE',  ( 1.047444401652940007E-13, -3.673940397442059178E-15, 30.00000000000000000 ) ) ;
#42 = AXIS2_PLACEMENT_3D ( 'NONE', #105, #127, #143 ) ;
#43 = CARTESIAN_POINT ( 'NONE',  ( 0.0000000000000000000, 0.0000000000000000000, 0.0000000000000000000 ) ) ;
#44 = AXIS2_PLACEMENT_3D ( 'NONE', #163, #77, #73 ) ;
#45 = APPROVAL ( #155, 'UNSPECIFIED' ) ;
#46 = EDGE_CURVE ( 'NONE', #78, #78, #189, .T. ) ;
#47 = PERSON_AND_ORGANIZATION_ROLE ( 'creator' ) ;
#48 = PERSON ( 'UNSPECIFIED', 'UNSPECIFIED', 'UNSPECIFIED', ('UNSPECIFIED'), ('UNSPECIFIED'), ('UNSPECIFIED') ) ;
#49 = APPLICATION_PROTOCOL_DEFINITION ( 'international standard', 'config_control_design', 1994, #95 ) ;
#50 = APPROVAL_STATUS ( 'not_yet_approved' ) ;
#51 = PRODUCT_DEFINITION_SHAPE ( 'NONE', 'NONE',  #91 ) ;
#52 = APPROVAL ( #148, 'UNSPECIFIED' ) ;
#53 = CC_DESIGN_PERSON_AND_ORGANIZATION_ASSIGNMENT ( #119, #171, ( #19 ) ) ;
#54 = PERSON_AND_ORGANIZATION_ROLE ( 'design_supplier' ) ;
#55 = PERSON_AND_ORGANIZATION ( #48, #207 ) ;
#56 = APPROVAL_PERSON_ORGANIZATION ( #220, #11, #65 ) ;
#57 = DIRECTION ( 'NONE',  ( 4.275831445896958607E-31, 1.000000000000000000, 1.224646799147353207E-16 ) ) ;
#58 = ORIENTED_EDGE ( 'NONE', *, *, #46, .F. ) ;
#59 = FACE_OUTER_BOUND ( 'NONE', #71, .T. ) ;
#60 = UNCERTAINTY_MEASURE_WITH_UNIT (LENGTH_MEASURE( 1.000000000000000082E-05 ), #93, 'distance_accuracy_value', 'NONE');
#61 = CARTESIAN_POINT ( 'NONE',  ( 1.745740669421566678E-14, 2.287133668559320810E-33, 5.000000000000000000 ) ) ;
#62 = DIRECTION ( 'NONE',  ( -3.491481338843133355E-15, 1.224646799147353207E-16, -1.000000000000000000 ) ) ;
#63 = ADVANCED_FACE ( 'NONE', ( #28, #6 ), #7, .T. ) ;
#64 = FACE_OUTER_BOUND ( 'NONE', #23, .T. ) ;
#65 = APPROVAL_ROLE ( '' ) ;
#66 = CALENDAR_DATE ( 2021, 7, 10 ) ;
#67 = AXIS2_PLACEMENT_3D ( 'NONE', #61, #177, #8 ) ;
#68 = LOCAL_TIME ( 15, 47, 48.00000000000000000, #137 ) ;
#69 = ORIENTED_EDGE ( 'NONE', *, *, #18, .F. ) ;
#70 = CC_DESIGN_SECURITY_CLASSIFICATION ( #19, ( #9 ) ) ;
#71 = EDGE_LOOP ( 'NONE', ( #89 ) ) ;
#72 = DIRECTION ( 'NONE',  ( 0.0000000000000000000, 1.000000000000000000, 0.0000000000000000000 ) ) ;
#73 = DIRECTION ( 'NONE',  ( 0.0000000000000000000, 1.000000000000000000, 0.0000000000000000000 ) ) ;
#74 = AXIS2_PLACEMENT_3D ( 'NONE', #164, #112, #186 ) ;
#75 = EDGE_LOOP ( 'NONE', ( #38 ) ) ;
#76 = CARTESIAN_POINT ( 'NONE',  ( 0.0000000000000000000, 0.0000000000000000000, 0.0000000000000000000 ) ) ;
#77 = DIRECTION ( 'NONE',  ( -3.491481338843133355E-15, 1.224646799147353207E-16, -1.000000000000000000 ) ) ;
#78 = VERTEX_POINT ( 'NONE', #222 ) ;
#79 = APPROVAL_ROLE ( '' ) ;
#80 = VERTEX_POINT ( 'NONE', #111 ) ;
#81 = CALENDAR_DATE ( 2021, 7, 10 ) ;
#82 = AXIS2_PLACEMENT_3D ( 'NONE', #193, #92, #159 ) ;
#83 = PERSON_AND_ORGANIZATION_ROLE ( 'creator' ) ;
#84 = AXIS2_PLACEMENT_3D ( 'NONE', #27, #124, #37 ) ;
#85 = FACE_OUTER_BOUND ( 'NONE', #156, .T. ) ;
#86 = CARTESIAN_POINT ( 'NONE',  ( 1.047444401652940007E-13, -3.673940397442059178E-15, 30.00000000000000000 ) ) ;
#87 = PLANE ( 'NONE',  #168 ) ;
#88 = EDGE_LOOP ( 'NONE', ( #196 ) ) ;
#89 = ORIENTED_EDGE ( 'NONE', *, *, #176, .T. ) ;
#90 = DIRECTION ( 'NONE',  ( 3.491481338843133355E-15, -1.224646799147353207E-16, 1.000000000000000000 ) ) ;
#91 = PRODUCT_DEFINITION ( 'UNKNOWN', '', #9, #128 ) ;
#92 = DIRECTION ( 'NONE',  ( -3.491481338843133355E-15, 1.224646799147353207E-16, -1.000000000000000000 ) ) ;
#93 =( LENGTH_UNIT ( ) NAMED_UNIT ( * ) SI_UNIT ( .MILLI., .METRE. ) );
#94 = PERSON_AND_ORGANIZATION ( #48, #207 ) ;
#95 = APPLICATION_CONTEXT ( 'configuration controlled 3d designs of mechanical parts and assemblies' ) ;
#96 = COORDINATED_UNIVERSAL_TIME_OFFSET ( 1, 0, .AHEAD. ) ;
#97 = ADVANCED_FACE ( 'NONE', ( #145 ), #213, .T. ) ;
#98 = ADVANCED_FACE ( 'NONE', ( #85 ), #2, .F. ) ;
#99 = CONICAL_SURFACE ( 'NONE', #31, 0.3049999999999989386, 1.029744258676649649 ) ;
#100 = CALENDAR_DATE ( 2021, 7, 10 ) ;
#101 = ORIENTED_EDGE ( 'NONE', *, *, #188, .T. ) ;
#102 = EDGE_LOOP ( 'NONE', ( #125 ) ) ;
#103 = ADVANCED_FACE ( 'NONE', ( #211 ), #87, .F. ) ;
#104 = ORIENTED_EDGE ( 'NONE', *, *, #185, .F. ) ;
#105 = CARTESIAN_POINT ( 'NONE',  ( 1.047444401652940007E-13, 2.999519565323649872E-33, 30.00000000000000000 ) ) ;
#106 = CYLINDRICAL_SURFACE ( 'NONE', #218, 0.3049999999999992717 ) ;
#107 = PRODUCT ( '38247', '38247', '', ( #16 ) ) ;
#108 = DIRECTION ( 'NONE',  ( 4.275831445896958607E-31, 1.000000000000000000, 1.224646799147353207E-16 ) ) ;
#109 = CC_DESIGN_DATE_AND_TIME_ASSIGNMENT ( #20, #169, ( #19 ) ) ;
#110 = AXIS2_PLACEMENT_3D ( 'NONE', #43, #215, #115 ) ;
#111 = CARTESIAN_POINT ( 'NONE',  ( 1.745740669421566678E-14, 0.3049999999999989386, 5.000000000000000000 ) ) ;
#112 = DIRECTION ( 'NONE',  ( -3.491481338843133355E-15, 1.224646799147353207E-16, -1.000000000000000000 ) ) ;
#113 = ADVANCED_FACE ( 'NONE', ( #5, #59 ), #106, .T. ) ;
#114 = DIRECTION ( 'NONE',  ( -3.491481338843133355E-15, 1.224646799147353207E-16, -1.000000000000000000 ) ) ;
#115 = DIRECTION ( 'NONE',  ( 1.000000000000000000, 0.0000000000000000000, 0.0000000000000000000 ) ) ;
#116 = CARTESIAN_POINT ( 'NONE',  ( 6.398575597670451874E-16, -2.244318203168703922E-17, 0.1832624888034072863 ) ) ;
#117 = CIRCLE ( 'NONE', #84, 0.3049999999999995492 ) ;
#118 = CC_DESIGN_APPROVAL ( #45, ( #19 ) ) ;
#119 = PERSON_AND_ORGANIZATION ( #48, #207 ) ;
#120 = APPROVAL_ROLE ( '' ) ;
#121 = DATE_AND_TIME ( #81, #68 ) ;
#122 = CLOSED_SHELL ( 'NONE', ( #103, #136, #25, #63, #98 ) ) ;
#123 = EDGE_LOOP ( 'NONE', ( #192 ) ) ;
#124 = DIRECTION ( 'NONE',  ( -3.491481338843133355E-15, 1.224646799147353207E-16, -1.000000000000000000 ) ) ;
#125 = ORIENTED_EDGE ( 'NONE', *, *, #188, .F. ) ;
#126 = CIRCLE ( 'NONE', #44, 0.4999999999999970024 ) ;
#127 = DIRECTION ( 'NONE',  ( -3.491481338843133355E-15, 1.224646799147353207E-16, -1.000000000000000000 ) ) ;
#128 = DESIGN_CONTEXT ( 'detailed design', #95, 'design' ) ;
#129 = CARTESIAN_POINT ( 'NONE',  ( 1.999833191551273251E-14, -7.014470590506958562E-16, 5.727749907475940816 ) ) ;
#130 = COORDINATED_UNIVERSAL_TIME_OFFSET ( 1, 0, .AHEAD. ) ;
#131 = MANIFOLD_SOLID_BREP ( 'Corps-Déplacer/Copier1[1]', #122 ) ;
#132 = APPLICATION_CONTEXT ( 'configuration controlled 3d designs of mechanical parts and assemblies' ) ;
#133 = AXIS2_PLACEMENT_3D ( 'NONE', #41, #214, #24 ) ;
#134 = CC_DESIGN_APPROVAL ( #52, ( #91 ) ) ;
#135 = DATE_AND_TIME ( #66, #184 ) ;
#136 = ADVANCED_FACE ( 'NONE', ( #10, #197 ), #22, .T. ) ;
#137 = COORDINATED_UNIVERSAL_TIME_OFFSET ( 1, 0, .AHEAD. ) ;
#138 = CLOSED_SHELL ( 'NONE', ( #221, #113, #97 ) ) ;
#139 = CC_DESIGN_PERSON_AND_ORGANIZATION_ASSIGNMENT ( #166, #47, ( #91 ) ) ;
#140 = CIRCLE ( 'NONE', #74, 0.3049999999999989386 ) ;
#141 = DATE_AND_TIME ( #100, #147 ) ;
#142 = APPROVAL_PERSON_ORGANIZATION ( #94, #52, #79 ) ;
#143 = DIRECTION ( 'NONE',  ( 4.275831445896958607E-31, 1.000000000000000000, 1.224646799147353207E-16 ) ) ;
#144 = EDGE_LOOP ( 'NONE', ( #175 ) ) ;
#145 = FACE_OUTER_BOUND ( 'NONE', #1, .T. ) ;
#146 = AXIS2_PLACEMENT_3D ( 'NONE', #86, #158, #72 ) ;
#147 = LOCAL_TIME ( 15, 47, 48.00000000000000000, #96 ) ;
#148 = APPROVAL_STATUS ( 'not_yet_approved' ) ;
#149 = PERSON_AND_ORGANIZATION ( #48, #207 ) ;
#150 = CARTESIAN_POINT ( 'NONE',  ( 0.0000000000000000000, 0.0000000000000000000, 0.0000000000000000000 ) ) ;
#151 = DATE_AND_TIME ( #200, #194 ) ;
#152 = CC_DESIGN_PERSON_AND_ORGANIZATION_ASSIGNMENT ( #149, #165, ( #107 ) ) ;
#153 = AXIS2_PLACEMENT_3D ( 'NONE', #129, #40, #179 ) ;
#154 = CALENDAR_DATE ( 2021, 7, 10 ) ;
#155 = APPROVAL_STATUS ( 'not_yet_approved' ) ;
#156 = EDGE_LOOP ( 'NONE', ( #69 ) ) ;
#157 = LOCAL_TIME ( 15, 47, 48.00000000000000000, #209 ) ;
#158 = DIRECTION ( 'NONE',  ( -3.491481338843133355E-15, 1.224646799147353207E-16, -1.000000000000000000 ) ) ;
#159 = DIRECTION ( 'NONE',  ( 0.0000000000000000000, 1.000000000000000000, 0.0000000000000000000 ) ) ;
#160 = ORIENTED_EDGE ( 'NONE', *, *, #161, .T. ) ;
#161 = EDGE_CURVE ( 'NONE', #80, #80, #117, .T. ) ;
#162 = DIRECTION ( 'NONE',  ( -3.491481338843133355E-15, 1.224646799147353207E-16, -1.000000000000000000 ) ) ;
#163 = CARTESIAN_POINT ( 'NONE',  ( 1.999833191551273251E-14, -7.014470590506958562E-16, 5.727749907475940816 ) ) ;
#164 = CARTESIAN_POINT ( 'NONE',  ( 6.398575597670451874E-16, -2.244318203168703922E-17, 0.1832624888034072863 ) ) ;
#165 = PERSON_AND_ORGANIZATION_ROLE ( 'design_owner' ) ;
#166 = PERSON_AND_ORGANIZATION ( #48, #207 ) ;
#167 = DIRECTION ( 'NONE',  ( -3.157262203913512389E-31, -1.000000000000000000, -8.886903053159903346E-17 ) ) ;
#168 = AXIS2_PLACEMENT_3D ( 'NONE', #195, #90, #39 ) ;
#169 = DATE_TIME_ROLE ( 'classification_date' ) ;
#170 = SECURITY_CLASSIFICATION_LEVEL ( 'unclassified' ) ;
#171 = PERSON_AND_ORGANIZATION_ROLE ( 'classification_officer' ) ;
#172 = ORIENTED_EDGE ( 'NONE', *, *, #176, .F. ) ;
#173 = PRODUCT_RELATED_PRODUCT_CATEGORY ( 'detail', '', ( #107 ) ) ;
#174 = EDGE_LOOP ( 'NONE', ( #58 ) ) ;
#175 = ORIENTED_EDGE ( 'NONE', *, *, #18, .T. ) ;
#176 = EDGE_CURVE ( 'NONE', #14, #14, #180, .T. ) ;
#177 = DIRECTION ( 'NONE',  ( 3.491481338843133355E-15, -1.224646799147353207E-16, 1.000000000000000000 ) ) ;
#178 = CARTESIAN_POINT ( 'NONE',  ( 1.043952920314096810E-13, -3.661693929450586610E-15, 29.89999999999999858 ) ) ;
#179 = DIRECTION ( 'NONE',  ( 0.0000000000000000000, -1.000000000000000000, 0.0000000000000000000 ) ) ;
#180 = CIRCLE ( 'NONE', #82, 0.3049999999999995492 ) ;
#181 = CARTESIAN_POINT ( 'NONE',  ( 1.745740669421566678E-14, 0.3049999999999989386, 5.000000000000000000 ) ) ;
#182 = CARTESIAN_POINT ( 'NONE',  ( 1.999833191551273251E-14, 0.4999999999999963363, 5.727749907475940816 ) ) ;
#183 = VERTEX_POINT ( 'NONE', #15 ) ;
#184 = LOCAL_TIME ( 15, 47, 48.00000000000000000, #30 ) ;
#185 = EDGE_CURVE ( 'NONE', #187, #187, #126, .T. ) ;
#186 = DIRECTION ( 'NONE',  ( 3.157262203913512389E-31, 1.000000000000000000, 8.886903053159903346E-17 ) ) ;
#187 = VERTEX_POINT ( 'NONE', #182 ) ;
#188 = EDGE_CURVE ( 'NONE', #183, #183, #140, .T. ) ;
#189 = CIRCLE ( 'NONE', #204, 0.4999999999999985012 ) ;
#190 = DIRECTION ( 'NONE',  ( 0.0000000000000000000, 1.000000000000000000, 0.0000000000000000000 ) ) ;
#191 = AXIS2_PLACEMENT_3D ( 'NONE', #150, #114, #108 ) ;
#192 = ORIENTED_EDGE ( 'NONE', *, *, #185, .T. ) ;
#193 = CARTESIAN_POINT ( 'NONE',  ( 1.745740669421566678E-14, -6.123233995736766282E-16, 5.000000000000000000 ) ) ;
#194 = LOCAL_TIME ( 15, 47, 48.00000000000000000, #130 ) ;
#195 = CARTESIAN_POINT ( 'NONE',  ( 1.745740669421566678E-14, 2.287133668559320810E-33, 5.000000000000000000 ) ) ;
#196 = ORIENTED_EDGE ( 'NONE', *, *, #46, .T. ) ;
#197 = FACE_OUTER_BOUND ( 'NONE', #123, .T. ) ;
#198 = VERTEX_POINT ( 'NONE', #202 ) ;
#199 = CC_DESIGN_APPROVAL ( #11, ( #9 ) ) ;
#200 = CALENDAR_DATE ( 2021, 7, 10 ) ;
#201 = ADVANCED_BREP_SHAPE_REPRESENTATION ( '38247', ( #131, #206, #110 ), #210 ) ;
#202 = CARTESIAN_POINT ( 'NONE',  ( 1.047444401652940007E-13, 0.3999999999999949707, 30.00000000000000000 ) ) ;
#203 = FACE_OUTER_BOUND ( 'NONE', #88, .T. ) ;
#204 = AXIS2_PLACEMENT_3D ( 'NONE', #178, #162, #190 ) ;
#205 = DATE_TIME_ROLE ( 'creation_date' ) ;
#206 = MANIFOLD_SOLID_BREP ( 'Corps-Déplacer/Copier1[2]', #138 ) ;
#207 = ORGANIZATION ( 'UNSPECIFIED', 'UNSPECIFIED', '' ) ;
#208 = PERSON_AND_ORGANIZATION ( #48, #207 ) ;
#209 = COORDINATED_UNIVERSAL_TIME_OFFSET ( 1, 0, .AHEAD. ) ;
#210 =( GEOMETRIC_REPRESENTATION_CONTEXT ( 3 ) GLOBAL_UNCERTAINTY_ASSIGNED_CONTEXT ( ( #60 ) ) GLOBAL_UNIT_ASSIGNED_CONTEXT ( ( #93, #13, #29 ) ) REPRESENTATION_CONTEXT ( 'NONE', 'WORKASPACE' ) );
#211 = FACE_OUTER_BOUND ( 'NONE', #26, .T. ) ;
#212 = FACE_OUTER_BOUND ( 'NONE', #36, .T. ) ;
#213 = PLANE ( 'NONE',  #67 ) ;
#214 = DIRECTION ( 'NONE',  ( -3.491481338843133355E-15, 1.224646799147353207E-16, -1.000000000000000000 ) ) ;
#215 = DIRECTION ( 'NONE',  ( 0.0000000000000000000, 0.0000000000000000000, 1.000000000000000000 ) ) ;
#216 = CYLINDRICAL_SURFACE ( 'NONE', #191, 0.4999999999999977240 ) ;
#217 = DIRECTION ( 'NONE',  ( 3.491481338843133355E-15, -1.224646799147353207E-16, 1.000000000000000000 ) ) ;
#218 = AXIS2_PLACEMENT_3D ( 'NONE', #76, #62, #57 ) ;
#219 = APPROVAL_DATE_TIME ( #151, #52 ) ;
#220 = PERSON_AND_ORGANIZATION ( #48, #207 ) ;
#221 = ADVANCED_FACE ( 'NONE', ( #64 ), #99, .T. ) ;
#222 = CARTESIAN_POINT ( 'NONE',  ( 1.043952920314096810E-13, 0.4999999999999947820, 29.89999999999999858 ) ) ;
#223 = APPROVAL_DATE_TIME ( #141, #11 ) ;
ENDSEC;
END-ISO-10303-21;
