ISO-10303-21;
HEADER;
FILE_DESCRIPTION (( 'STEP AP203' ),
    '1' );
FILE_NAME ('38246.step',
    '2021-10-07T13:47:48',
    ( '' ),
    ( '' ),
    'SwSTEP 2.0',
    'SolidWorks 2019',
    '' );
FILE_SCHEMA (( 'CONFIG_CONTROL_DESIGN' ));
ENDSEC;

DATA;
#1 = APPLICATION_CONTEXT ( 'configuration controlled 3d designs of mechanical parts and assemblies' ) ;
#2 = ORIENTED_EDGE ( 'NONE', *, *, #32, .T. ) ;
#3 = PERSON_AND_ORGANIZATION_ROLE ( 'design_supplier' ) ;
#4 = CARTESIAN_POINT ( 'NONE',  ( 1.047444401652940007E-13, -3.673940397442059178E-15, 30.00000000000000000 ) ) ;
#5 = ADVANCED_FACE ( 'NONE', ( #6, #27 ), #175, .T. ) ;
#6 = FACE_OUTER_BOUND ( 'NONE', #146, .T. ) ;
#7 = DIRECTION ( 'NONE',  ( 0.0000000000000000000, 1.000000000000000000, 0.0000000000000000000 ) ) ;
#8 = DIRECTION ( 'NONE',  ( 3.491481338843133355E-15, -1.224646799147353207E-16, 1.000000000000000000 ) ) ;
#9 = DATE_AND_TIME ( #217, #199 ) ;
#10 = EDGE_CURVE ( 'NONE', #185, #185, #67, .T. ) ;
#11 = DIRECTION ( 'NONE',  ( -3.491481338843133355E-15, 1.224646799147353207E-16, -1.000000000000000000 ) ) ;
#12 = DIRECTION ( 'NONE',  ( -3.491481338843133355E-15, 1.224646799147353207E-16, -1.000000000000000000 ) ) ;
#13 = CIRCLE ( 'NONE', #43, 0.2749999999999989675 ) ;
#14 = PRODUCT_RELATED_PRODUCT_CATEGORY ( 'detail', '', ( #191 ) ) ;
#15 = DIRECTION ( 'NONE',  ( 1.000000000000000000, 0.0000000000000000000, 0.0000000000000000000 ) ) ;
#16 = PERSON_AND_ORGANIZATION ( #145, #65 ) ;
#17 = COORDINATED_UNIVERSAL_TIME_OFFSET ( 1, 0, .AHEAD. ) ;
#18 = PRODUCT_DEFINITION ( 'UNKNOWN', '', #184, #35 ) ;
#19 = APPROVAL_ROLE ( '' ) ;
#20 = CARTESIAN_POINT ( 'NONE',  ( 1.047444401652940007E-13, -3.673940397442059178E-15, 30.00000000000000000 ) ) ;
#21 = CALENDAR_DATE ( 2021, 7, 10 ) ;
#22 = AXIS2_PLACEMENT_3D ( 'NONE', #163, #8, #206 ) ;
#23 = EDGE_LOOP ( 'NONE', ( #155 ) ) ;
#24 = ADVANCED_FACE ( 'NONE', ( #86, #70 ), #100, .T. ) ;
#25 = DIRECTION ( 'NONE',  ( -3.491481338843133355E-15, 1.224646799147353207E-16, -1.000000000000000000 ) ) ;
#26 = SHAPE_DEFINITION_REPRESENTATION ( #66, #55 ) ;
#27 = FACE_OUTER_BOUND ( 'NONE', #127, .T. ) ;
#28 = APPROVAL_PERSON_ORGANIZATION ( #16, #182, #19 ) ;
#29 = CIRCLE ( 'NONE', #78, 0.2749999999999997446 ) ;
#30 = CLOSED_SHELL ( 'NONE', ( #103, #50, #186 ) ) ;
#31 = CARTESIAN_POINT ( 'NONE',  ( 1.047444401652940007E-13, 0.3999999999999949707, 30.00000000000000000 ) ) ;
#32 = EDGE_CURVE ( 'NONE', #48, #48, #69, .T. ) ;
#33 = CC_DESIGN_PERSON_AND_ORGANIZATION_ASSIGNMENT ( #204, #42, ( #151 ) ) ;
#34 = CC_DESIGN_APPROVAL ( #182, ( #184 ) ) ;
#35 = DESIGN_CONTEXT ( 'detailed design', #179, 'design' ) ;
#36 = AXIS2_PLACEMENT_3D ( 'NONE', #38, #40, #88 ) ;
#37 =( NAMED_UNIT ( * ) PLANE_ANGLE_UNIT ( ) SI_UNIT ( $, .RADIAN. ) );
#38 = CARTESIAN_POINT ( 'NONE',  ( 0.0000000000000000000, 0.0000000000000000000, 0.0000000000000000000 ) ) ;
#39 = EDGE_LOOP ( 'NONE', ( #214 ) ) ;
#40 = DIRECTION ( 'NONE',  ( -3.491481338843133355E-15, 1.224646799147353207E-16, -1.000000000000000000 ) ) ;
#41 = DIRECTION ( 'NONE',  ( -3.491481338843133355E-15, 1.224646799147353207E-16, -1.000000000000000000 ) ) ;
#42 = PERSON_AND_ORGANIZATION_ROLE ( 'classification_officer' ) ;
#43 = AXIS2_PLACEMENT_3D ( 'NONE', #85, #25, #74 ) ;
#44 = CC_DESIGN_PERSON_AND_ORGANIZATION_ASSIGNMENT ( #49, #99, ( #191 ) ) ;
#45 = PLANE ( 'NONE',  #138 ) ;
#46 = CARTESIAN_POINT ( 'NONE',  ( 1.864350281859840914E-14, 0.4999999999999963363, 5.339711431703009659 ) ) ;
#47 = MECHANICAL_CONTEXT ( 'NONE', #1, 'mechanical' ) ;
#48 = VERTEX_POINT ( 'NONE', #142 ) ;
#49 = PERSON_AND_ORGANIZATION ( #145, #65 ) ;
#50 = ADVANCED_FACE ( 'NONE', ( #115, #141 ), #57, .T. ) ;
#51 = VERTEX_POINT ( 'NONE', #46 ) ;
#52 = CC_DESIGN_APPROVAL ( #152, ( #151 ) ) ;
#53 = EDGE_LOOP ( 'NONE', ( #61 ) ) ;
#54 = APPROVAL_STATUS ( 'not_yet_approved' ) ;
#55 = ADVANCED_BREP_SHAPE_REPRESENTATION ( '38246', ( #56, #210, #207 ), #140 ) ;
#56 = MANIFOLD_SOLID_BREP ( 'Corps-Déplacer/Copier1[1]', #188 ) ;
#57 = CYLINDRICAL_SURFACE ( 'NONE', #174, 0.2749999999999993561 ) ;
#58 = DIRECTION ( 'NONE',  ( 0.0000000000000000000, 1.000000000000000000, 0.0000000000000000000 ) ) ;
#59 = CC_DESIGN_SECURITY_CLASSIFICATION ( #151, ( #184 ) ) ;
#60 = ORIENTED_EDGE ( 'NONE', *, *, #10, .T. ) ;
#61 = ORIENTED_EDGE ( 'NONE', *, *, #135, .T. ) ;
#62 = DATE_AND_TIME ( #87, #157 ) ;
#63 = APPROVAL_PERSON_ORGANIZATION ( #160, #152, #113 ) ;
#64 = VERTEX_POINT ( 'NONE', #137 ) ;
#65 = ORGANIZATION ( 'UNSPECIFIED', 'UNSPECIFIED', '' ) ;
#66 = PRODUCT_DEFINITION_SHAPE ( 'NONE', 'NONE',  #18 ) ;
#67 = CIRCLE ( 'NONE', #187, 0.3999999999999986899 ) ;
#68 = CALENDAR_DATE ( 2021, 7, 10 ) ;
#69 = CIRCLE ( 'NONE', #212, 0.4999999999999985012 ) ;
#70 = FACE_BOUND ( 'NONE', #215, .T. ) ;
#71 = SECURITY_CLASSIFICATION_LEVEL ( 'unclassified' ) ;
#72 = LOCAL_TIME ( 15, 47, 48.00000000000000000, #17 ) ;
#73 = CARTESIAN_POINT ( 'NONE',  ( 0.0000000000000000000, 0.0000000000000000000, 0.0000000000000000000 ) ) ;
#74 = DIRECTION ( 'NONE',  ( 3.501690807976805717E-31, 1.000000000000000000, 9.856383386231895805E-17 ) ) ;
#75 = CARTESIAN_POINT ( 'NONE',  ( 1.571166602479410325E-14, -1.041590079118783446E-31, 4.500000000000000888 ) ) ;
#76 = AXIS2_PLACEMENT_3D ( 'NONE', #121, #12, #148 ) ;
#77 = EDGE_LOOP ( 'NONE', ( #219 ) ) ;
#78 = AXIS2_PLACEMENT_3D ( 'NONE', #161, #89, #7 ) ;
#79 = APPROVAL_STATUS ( 'not_yet_approved' ) ;
#80 = COORDINATED_UNIVERSAL_TIME_OFFSET ( 1, 0, .AHEAD. ) ;
#81 = VERTEX_POINT ( 'NONE', #213 ) ;
#82 = EDGE_CURVE ( 'NONE', #64, #64, #13, .T. ) ;
#83 = DIRECTION ( 'NONE',  ( 0.0000000000000000000, 1.000000000000000000, 0.0000000000000000000 ) ) ;
#84 = PERSON_AND_ORGANIZATION ( #145, #65 ) ;
#85 = CARTESIAN_POINT ( 'NONE',  ( 5.769207506096308970E-16, -2.023565593020962133E-17, 0.1652366702325803183 ) ) ;
#86 = FACE_OUTER_BOUND ( 'NONE', #130, .T. ) ;
#87 = CALENDAR_DATE ( 2021, 7, 10 ) ;
#88 = DIRECTION ( 'NONE',  ( 4.275831445896958607E-31, 1.000000000000000000, 1.224646799147353207E-16 ) ) ;
#89 = DIRECTION ( 'NONE',  ( -3.491481338843133355E-15, 1.224646799147353207E-16, -1.000000000000000000 ) ) ;
#90 = COORDINATED_UNIVERSAL_TIME_OFFSET ( 1, 0, .AHEAD. ) ;
#91 = EDGE_CURVE ( 'NONE', #81, #81, #29, .T. ) ;
#92 = CC_DESIGN_APPROVAL ( #120, ( #18 ) ) ;
#93 = CARTESIAN_POINT ( 'NONE',  ( 1.571166602479410325E-14, -5.510910596163089556E-16, 4.500000000000000888 ) ) ;
#94 = APPROVAL_DATE_TIME ( #9, #152 ) ;
#95 = DIRECTION ( 'NONE',  ( 4.275831445896958607E-31, 1.000000000000000000, 1.224646799147353207E-16 ) ) ;
#96 = CARTESIAN_POINT ( 'NONE',  ( 0.0000000000000000000, 0.0000000000000000000, 0.0000000000000000000 ) ) ;
#97 =( NAMED_UNIT ( * ) SI_UNIT ( $, .STERADIAN. ) SOLID_ANGLE_UNIT ( ) );
#98 = UNCERTAINTY_MEASURE_WITH_UNIT (LENGTH_MEASURE( 1.000000000000000082E-05 ), #208, 'distance_accuracy_value', 'NONE');
#99 = PERSON_AND_ORGANIZATION_ROLE ( 'design_owner' ) ;
#100 = CONICAL_SURFACE ( 'NONE', #154, 0.3999999999999986899, 0.7853981633974504994 ) ;
#101 = DIRECTION ( 'NONE',  ( 0.0000000000000000000, 0.0000000000000000000, 1.000000000000000000 ) ) ;
#102 = ADVANCED_FACE ( 'NONE', ( #177 ), #128, .F. ) ;
#103 = ADVANCED_FACE ( 'NONE', ( #147 ), #193, .T. ) ;
#104 = AXIS2_PLACEMENT_3D ( 'NONE', #75, #143, #218 ) ;
#105 = PLANE ( 'NONE',  #195 ) ;
#106 = ORIENTED_EDGE ( 'NONE', *, *, #32, .F. ) ;
#107 = DATE_TIME_ROLE ( 'creation_date' ) ;
#108 = DIRECTION ( 'NONE',  ( 4.275831445896958607E-31, 1.000000000000000000, 1.224646799147353207E-16 ) ) ;
#109 = EDGE_CURVE ( 'NONE', #51, #51, #119, .T. ) ;
#110 = EDGE_LOOP ( 'NONE', ( #112 ) ) ;
#111 = CONICAL_SURFACE ( 'NONE', #22, 0.4999999999999970024, 0.2617993877991428575 ) ;
#112 = ORIENTED_EDGE ( 'NONE', *, *, #91, .T. ) ;
#113 = APPROVAL_ROLE ( '' ) ;
#114 = CARTESIAN_POINT ( 'NONE',  ( 1.047444401652940007E-13, 2.999519565323649872E-33, 30.00000000000000000 ) ) ;
#115 = FACE_OUTER_BOUND ( 'NONE', #178, .T. ) ;
#116 = FACE_OUTER_BOUND ( 'NONE', #164, .T. ) ;
#117 = CARTESIAN_POINT ( 'NONE',  ( 1.571166602479410325E-14, -1.041590079118783446E-31, 4.500000000000000888 ) ) ;
#118 = DIRECTION ( 'NONE',  ( 3.491481338843133355E-15, -1.224646799147353207E-16, 1.000000000000000000 ) ) ;
#119 = CIRCLE ( 'NONE', #76, 0.4999999999999970024 ) ;
#120 = APPROVAL ( #196, 'UNSPECIFIED' ) ;
#121 = CARTESIAN_POINT ( 'NONE',  ( 1.864350281859840914E-14, -6.539260513205622067E-16, 5.339711431703009659 ) ) ;
#122 = PERSON_AND_ORGANIZATION ( #145, #65 ) ;
#123 = CC_DESIGN_DATE_AND_TIME_ASSIGNMENT ( #62, #162, ( #151 ) ) ;
#124 = AXIS2_PLACEMENT_3D ( 'NONE', #131, #183, #220 ) ;
#125 = CIRCLE ( 'NONE', #133, 0.2749999999999997446 ) ;
#126 = PERSON_AND_ORGANIZATION ( #145, #65 ) ;
#127 = EDGE_LOOP ( 'NONE', ( #2 ) ) ;
#128 = PLANE ( 'NONE',  #104 ) ;
#129 = DIRECTION ( 'NONE',  ( 0.0000000000000000000, 1.000000000000000000, 0.0000000000000000000 ) ) ;
#130 = EDGE_LOOP ( 'NONE', ( #106 ) ) ;
#131 = CARTESIAN_POINT ( 'NONE',  ( 5.769207506096308970E-16, -2.023565593020962133E-17, 0.1652366702325803183 ) ) ;
#132 = LOCAL_TIME ( 15, 47, 48.00000000000000000, #176 ) ;
#133 = AXIS2_PLACEMENT_3D ( 'NONE', #93, #166, #194 ) ;
#134 = FACE_OUTER_BOUND ( 'NONE', #39, .T. ) ;
#135 = EDGE_CURVE ( 'NONE', #136, #136, #125, .T. ) ;
#136 = VERTEX_POINT ( 'NONE', #211 ) ;
#137 = CARTESIAN_POINT ( 'NONE',  ( 5.769207506096308970E-16, 0.2749999999999989675, 0.1652366702325803460 ) ) ;
#138 = AXIS2_PLACEMENT_3D ( 'NONE', #117, #118, #167 ) ;
#139 = ADVANCED_FACE ( 'NONE', ( #134 ), #105, .F. ) ;
#140 =( GEOMETRIC_REPRESENTATION_CONTEXT ( 3 ) GLOBAL_UNCERTAINTY_ASSIGNED_CONTEXT ( ( #98 ) ) GLOBAL_UNIT_ASSIGNED_CONTEXT ( ( #208, #37, #97 ) ) REPRESENTATION_CONTEXT ( 'NONE', 'WORKASPACE' ) );
#141 = FACE_OUTER_BOUND ( 'NONE', #110, .T. ) ;
#142 = CARTESIAN_POINT ( 'NONE',  ( 1.043952920314096810E-13, 0.4999999999999947820, 29.89999999999999858 ) ) ;
#143 = DIRECTION ( 'NONE',  ( 3.491481338843133355E-15, -1.224646799147353207E-16, 1.000000000000000000 ) ) ;
#144 = COORDINATED_UNIVERSAL_TIME_OFFSET ( 1, 0, .AHEAD. ) ;
#145 = PERSON ( 'UNSPECIFIED', 'UNSPECIFIED', 'UNSPECIFIED', ('UNSPECIFIED'), ('UNSPECIFIED'), ('UNSPECIFIED') ) ;
#146 = EDGE_LOOP ( 'NONE', ( #216 ) ) ;
#147 = FACE_OUTER_BOUND ( 'NONE', #203, .T. ) ;
#148 = DIRECTION ( 'NONE',  ( 0.0000000000000000000, 1.000000000000000000, 0.0000000000000000000 ) ) ;
#149 = ADVANCED_FACE ( 'NONE', ( #168, #202 ), #111, .T. ) ;
#150 = DATE_AND_TIME ( #21, #132 ) ;
#151 = SECURITY_CLASSIFICATION ( '', '', #71 ) ;
#152 = APPROVAL ( #54, 'UNSPECIFIED' ) ;
#153 = PERSON_AND_ORGANIZATION ( #145, #65 ) ;
#154 = AXIS2_PLACEMENT_3D ( 'NONE', #20, #197, #129 ) ;
#155 = ORIENTED_EDGE ( 'NONE', *, *, #109, .T. ) ;
#156 = APPLICATION_PROTOCOL_DEFINITION ( 'international standard', 'config_control_design', 1994, #1 ) ;
#157 = LOCAL_TIME ( 15, 47, 48.00000000000000000, #90 ) ;
#158 = CARTESIAN_POINT ( 'NONE',  ( 1.043952920314096810E-13, -3.661693929450586610E-15, 29.89999999999999858 ) ) ;
#159 = DIRECTION ( 'NONE',  ( -3.491481338843133355E-15, 1.224646799147353207E-16, -1.000000000000000000 ) ) ;
#160 = PERSON_AND_ORGANIZATION ( #145, #65 ) ;
#161 = CARTESIAN_POINT ( 'NONE',  ( 1.571166602479410325E-14, -5.510910596163089556E-16, 4.500000000000000888 ) ) ;
#162 = DATE_TIME_ROLE ( 'classification_date' ) ;
#163 = CARTESIAN_POINT ( 'NONE',  ( 1.864350281859840914E-14, -6.539260513205622067E-16, 5.339711431703009659 ) ) ;
#164 = EDGE_LOOP ( 'NONE', ( #201 ) ) ;
#165 = CC_DESIGN_PERSON_AND_ORGANIZATION_ASSIGNMENT ( #153, #209, ( #184 ) ) ;
#166 = DIRECTION ( 'NONE',  ( -3.491481338843133355E-15, 1.224646799147353207E-16, -1.000000000000000000 ) ) ;
#167 = DIRECTION ( 'NONE',  ( -4.275831445896958607E-31, -1.000000000000000000, -1.224646799147353207E-16 ) ) ;
#168 = FACE_BOUND ( 'NONE', #77, .T. ) ;
#169 = APPROVAL_PERSON_ORGANIZATION ( #126, #120, #192 ) ;
#170 = PERSON_AND_ORGANIZATION_ROLE ( 'creator' ) ;
#171 = CALENDAR_DATE ( 2021, 7, 10 ) ;
#172 = APPLICATION_PROTOCOL_DEFINITION ( 'international standard', 'config_control_design', 1994, #179 ) ;
#173 = APPROVAL_DATE_TIME ( #222, #120 ) ;
#174 = AXIS2_PLACEMENT_3D ( 'NONE', #73, #159, #108 ) ;
#175 = CYLINDRICAL_SURFACE ( 'NONE', #36, 0.4999999999999977240 ) ;
#176 = COORDINATED_UNIVERSAL_TIME_OFFSET ( 1, 0, .AHEAD. ) ;
#177 = FACE_OUTER_BOUND ( 'NONE', #53, .T. ) ;
#178 = EDGE_LOOP ( 'NONE', ( #198 ) ) ;
#179 = APPLICATION_CONTEXT ( 'configuration controlled 3d designs of mechanical parts and assemblies' ) ;
#180 = DIRECTION ( 'NONE',  ( -3.491481338843133355E-15, 1.224646799147353207E-16, -1.000000000000000000 ) ) ;
#181 = CC_DESIGN_PERSON_AND_ORGANIZATION_ASSIGNMENT ( #84, #3, ( #184 ) ) ;
#182 = APPROVAL ( #79, 'UNSPECIFIED' ) ;
#183 = DIRECTION ( 'NONE',  ( 3.491481338843133355E-15, -1.224646799147353207E-16, 1.000000000000000000 ) ) ;
#184 = PRODUCT_DEFINITION_FORMATION_WITH_SPECIFIED_SOURCE ( 'ANY', '', #191, .NOT_KNOWN. ) ;
#185 = VERTEX_POINT ( 'NONE', #31 ) ;
#186 = ADVANCED_FACE ( 'NONE', ( #116 ), #45, .T. ) ;
#187 = AXIS2_PLACEMENT_3D ( 'NONE', #4, #41, #58 ) ;
#188 = CLOSED_SHELL ( 'NONE', ( #102, #149, #5, #24, #139 ) ) ;
#189 = DATE_AND_TIME ( #68, #205 ) ;
#190 = CC_DESIGN_DATE_AND_TIME_ASSIGNMENT ( #189, #107, ( #18 ) ) ;
#191 = PRODUCT ( '38246', '38246', '', ( #47 ) ) ;
#192 = APPROVAL_ROLE ( '' ) ;
#193 = CONICAL_SURFACE ( 'NONE', #124, 0.2749999999999989675, 1.029744258676649649 ) ;
#194 = DIRECTION ( 'NONE',  ( 0.0000000000000000000, 1.000000000000000000, 0.0000000000000000000 ) ) ;
#195 = AXIS2_PLACEMENT_3D ( 'NONE', #114, #11, #95 ) ;
#196 = APPROVAL_STATUS ( 'not_yet_approved' ) ;
#197 = DIRECTION ( 'NONE',  ( -3.491481338843133355E-15, 1.224646799147353207E-16, -1.000000000000000000 ) ) ;
#198 = ORIENTED_EDGE ( 'NONE', *, *, #82, .F. ) ;
#199 = LOCAL_TIME ( 15, 47, 48.00000000000000000, #144 ) ;
#200 = ORIENTED_EDGE ( 'NONE', *, *, #82, .T. ) ;
#201 = ORIENTED_EDGE ( 'NONE', *, *, #91, .F. ) ;
#202 = FACE_OUTER_BOUND ( 'NONE', #23, .T. ) ;
#203 = EDGE_LOOP ( 'NONE', ( #200 ) ) ;
#204 = PERSON_AND_ORGANIZATION ( #145, #65 ) ;
#205 = LOCAL_TIME ( 15, 47, 48.00000000000000000, #80 ) ;
#206 = DIRECTION ( 'NONE',  ( 0.0000000000000000000, -1.000000000000000000, 0.0000000000000000000 ) ) ;
#207 = AXIS2_PLACEMENT_3D ( 'NONE', #96, #101, #15 ) ;
#208 =( LENGTH_UNIT ( ) NAMED_UNIT ( * ) SI_UNIT ( .MILLI., .METRE. ) );
#209 = PERSON_AND_ORGANIZATION_ROLE ( 'creator' ) ;
#210 = MANIFOLD_SOLID_BREP ( 'Corps-Déplacer/Copier1[2]', #30 ) ;
#211 = CARTESIAN_POINT ( 'NONE',  ( 1.571166602479410325E-14, 0.2749999999999991895, 4.500000000000000888 ) ) ;
#212 = AXIS2_PLACEMENT_3D ( 'NONE', #158, #180, #83 ) ;
#213 = CARTESIAN_POINT ( 'NONE',  ( 1.571166602479410325E-14, 0.2749999999999991895, 4.500000000000000888 ) ) ;
#214 = ORIENTED_EDGE ( 'NONE', *, *, #10, .F. ) ;
#215 = EDGE_LOOP ( 'NONE', ( #60 ) ) ;
#216 = ORIENTED_EDGE ( 'NONE', *, *, #109, .F. ) ;
#217 = CALENDAR_DATE ( 2021, 7, 10 ) ;
#218 = DIRECTION ( 'NONE',  ( -4.275831445896958607E-31, -1.000000000000000000, -1.224646799147353207E-16 ) ) ;
#219 = ORIENTED_EDGE ( 'NONE', *, *, #135, .F. ) ;
#220 = DIRECTION ( 'NONE',  ( -3.501690807976805717E-31, -1.000000000000000000, -9.856383386231895805E-17 ) ) ;
#221 = CC_DESIGN_PERSON_AND_ORGANIZATION_ASSIGNMENT ( #122, #170, ( #18 ) ) ;
#222 = DATE_AND_TIME ( #171, #72 ) ;
#223 = APPROVAL_DATE_TIME ( #150, #182 ) ;
ENDSEC;
END-ISO-10303-21;
