ISO-10303-21;
HEADER;
FILE_DESCRIPTION (( 'STEP AP203' ),
    '1' );
FILE_NAME ('38245.step',
    '2021-10-07T13:47:47',
    ( '' ),
    ( '' ),
    'SwSTEP 2.0',
    'SolidWorks 2019',
    '' );
FILE_SCHEMA (( 'CONFIG_CONTROL_DESIGN' ));
ENDSEC;

DATA;
#1 = APPROVAL ( #6, 'UNSPECIFIED' ) ;
#2 = CIRCLE ( 'NONE', #220, 0.4999999999999970024 ) ;
#3 = EDGE_LOOP ( 'NONE', ( #158 ) ) ;
#4 = COORDINATED_UNIVERSAL_TIME_OFFSET ( 1, 0, .AHEAD. ) ;
#5 = CC_DESIGN_PERSON_AND_ORGANIZATION_ASSIGNMENT ( #132, #38, ( #218 ) ) ;
#6 = APPROVAL_STATUS ( 'not_yet_approved' ) ;
#7 = EDGE_LOOP ( 'NONE', ( #70 ) ) ;
#8 = PERSON_AND_ORGANIZATION_ROLE ( 'design_supplier' ) ;
#9 = DATE_AND_TIME ( #196, #104 ) ;
#10 = AXIS2_PLACEMENT_3D ( 'NONE', #179, #99, #48 ) ;
#11 = FACE_OUTER_BOUND ( 'NONE', #7, .T. ) ;
#12 = CARTESIAN_POINT ( 'NONE',  ( 5.664312824167283181E-16, -1.986773491329671168E-17, 0.1622323671374424348 ) ) ;
#13 = CIRCLE ( 'NONE', #64, 0.4999999999999985012 ) ;
#14 = PLANE ( 'NONE',  #163 ) ;
#15 = DIRECTION ( 'NONE',  ( 4.275831445896958607E-31, 1.000000000000000000, 1.224646799147353207E-16 ) ) ;
#16 = FACE_OUTER_BOUND ( 'NONE', #44, .T. ) ;
#17 = ADVANCED_FACE ( 'NONE', ( #11 ), #42, .F. ) ;
#18 =( NAMED_UNIT ( * ) SI_UNIT ( $, .STERADIAN. ) SOLID_ANGLE_UNIT ( ) );
#19 = ADVANCED_FACE ( 'NONE', ( #56 ), #58, .F. ) ;
#20 = APPROVAL_ROLE ( '' ) ;
#21 = CC_DESIGN_PERSON_AND_ORGANIZATION_ASSIGNMENT ( #192, #130, ( #136 ) ) ;
#22 = ORIENTED_EDGE ( 'NONE', *, *, #92, .F. ) ;
#23 = PERSON ( 'UNSPECIFIED', 'UNSPECIFIED', 'UNSPECIFIED', ('UNSPECIFIED'), ('UNSPECIFIED'), ('UNSPECIFIED') ) ;
#24 = SHAPE_DEFINITION_REPRESENTATION ( #25, #88 ) ;
#25 = PRODUCT_DEFINITION_SHAPE ( 'NONE', 'NONE',  #189 ) ;
#26 = ORIENTED_EDGE ( 'NONE', *, *, #65, .T. ) ;
#27 = DATE_AND_TIME ( #118, #66 ) ;
#28 = DIRECTION ( 'NONE',  ( -4.275831445896958607E-31, -1.000000000000000000, -1.224646799147353207E-16 ) ) ;
#29 = FACE_BOUND ( 'NONE', #3, .T. ) ;
#30 = CC_DESIGN_APPROVAL ( #98, ( #218 ) ) ;
#31 = CARTESIAN_POINT ( 'NONE',  ( 1.870865474734961426E-14, -6.562112733584345275E-16, 5.358371685740854318 ) ) ;
#32 = CARTESIAN_POINT ( 'NONE',  ( 1.043952920314096810E-13, -3.661693929450586610E-15, 29.89999999999999858 ) ) ;
#33 = FACE_OUTER_BOUND ( 'NONE', #207, .T. ) ;
#34 =( LENGTH_UNIT ( ) NAMED_UNIT ( * ) SI_UNIT ( .MILLI., .METRE. ) );
#35 = DIRECTION ( 'NONE',  ( 1.000000000000000000, 0.0000000000000000000, 0.0000000000000000000 ) ) ;
#36 = CC_DESIGN_PERSON_AND_ORGANIZATION_ASSIGNMENT ( #53, #127, ( #210 ) ) ;
#37 = CONICAL_SURFACE ( 'NONE', #203, 0.3999999999999986899, 0.7853981633974504994 ) ;
#38 = PERSON_AND_ORGANIZATION_ROLE ( 'classification_officer' ) ;
#39 = EDGE_LOOP ( 'NONE', ( #73 ) ) ;
#40 = COORDINATED_UNIVERSAL_TIME_OFFSET ( 1, 0, .AHEAD. ) ;
#41 = CC_DESIGN_PERSON_AND_ORGANIZATION_ASSIGNMENT ( #69, #213, ( #189 ) ) ;
#42 = PLANE ( 'NONE',  #184 ) ;
#43 = DATE_AND_TIME ( #159, #67 ) ;
#44 = EDGE_LOOP ( 'NONE', ( #197 ) ) ;
#45 = APPROVAL_STATUS ( 'not_yet_approved' ) ;
#46 = AXIS2_PLACEMENT_3D ( 'NONE', #63, #188, #35 ) ;
#47 = CARTESIAN_POINT ( 'NONE',  ( 1.571166602479410325E-14, 0.2699999999999992961, 4.500000000000000888 ) ) ;
#48 = DIRECTION ( 'NONE',  ( 0.0000000000000000000, -1.000000000000000000, 0.0000000000000000000 ) ) ;
#49 = DIRECTION ( 'NONE',  ( 4.275831445896958607E-31, 1.000000000000000000, 1.224646799147353207E-16 ) ) ;
#50 = MANIFOLD_SOLID_BREP ( 'Corps-Déplacer/Copier1[2]', #117 ) ;
#51 = DIRECTION ( 'NONE',  ( -3.491481338843133355E-15, 1.224646799147353207E-16, -1.000000000000000000 ) ) ;
#52 = CARTESIAN_POINT ( 'NONE',  ( 1.571166602479410325E-14, -1.041965019064448721E-31, 4.500000000000000888 ) ) ;
#53 = PERSON_AND_ORGANIZATION ( #23, #173 ) ;
#54 = PERSON_AND_ORGANIZATION ( #23, #173 ) ;
#55 = COORDINATED_UNIVERSAL_TIME_OFFSET ( 1, 0, .AHEAD. ) ;
#56 = FACE_OUTER_BOUND ( 'NONE', #91, .T. ) ;
#57 = CYLINDRICAL_SURFACE ( 'NONE', #83, 0.4999999999999977240 ) ;
#58 = PLANE ( 'NONE',  #170 ) ;
#59 = DIRECTION ( 'NONE',  ( 0.0000000000000000000, 1.000000000000000000, 0.0000000000000000000 ) ) ;
#60 = APPROVAL ( #45, 'UNSPECIFIED' ) ;
#61 = DIRECTION ( 'NONE',  ( 3.491481338843133355E-15, -1.224646799147353207E-16, 1.000000000000000000 ) ) ;
#62 = FACE_OUTER_BOUND ( 'NONE', #211, .T. ) ;
#63 = CARTESIAN_POINT ( 'NONE',  ( 0.0000000000000000000, 0.0000000000000000000, 0.0000000000000000000 ) ) ;
#64 = AXIS2_PLACEMENT_3D ( 'NONE', #32, #81, #123 ) ;
#65 = EDGE_CURVE ( 'NONE', #151, #151, #111, .T. ) ;
#66 = LOCAL_TIME ( 15, 47, 47.00000000000000000, #178 ) ;
#67 = LOCAL_TIME ( 15, 47, 47.00000000000000000, #4 ) ;
#68 = DIRECTION ( 'NONE',  ( 3.491481338843133355E-15, -1.224646799147353207E-16, 1.000000000000000000 ) ) ;
#69 = PERSON_AND_ORGANIZATION ( #23, #173 ) ;
#70 = ORIENTED_EDGE ( 'NONE', *, *, #165, .T. ) ;
#71 = SECURITY_CLASSIFICATION_LEVEL ( 'unclassified' ) ;
#72 = CC_DESIGN_SECURITY_CLASSIFICATION ( #218, ( #136 ) ) ;
#73 = ORIENTED_EDGE ( 'NONE', *, *, #165, .F. ) ;
#74 = ADVANCED_FACE ( 'NONE', ( #181, #155 ), #126, .T. ) ;
#75 = CC_DESIGN_APPROVAL ( #60, ( #189 ) ) ;
#76 = APPROVAL_STATUS ( 'not_yet_approved' ) ;
#77 = AXIS2_PLACEMENT_3D ( 'NONE', #101, #107, #59 ) ;
#78 = DIRECTION ( 'NONE',  ( -4.275831445896958607E-31, -1.000000000000000000, -1.224646799147353207E-16 ) ) ;
#79 = APPROVAL_DATE_TIME ( #27, #60 ) ;
#80 = ADVANCED_FACE ( 'NONE', ( #16 ), #156, .T. ) ;
#81 = DIRECTION ( 'NONE',  ( -3.491481338843133355E-15, 1.224646799147353207E-16, -1.000000000000000000 ) ) ;
#82 = VERTEX_POINT ( 'NONE', #215 ) ;
#83 = AXIS2_PLACEMENT_3D ( 'NONE', #167, #198, #15 ) ;
#84 = VERTEX_POINT ( 'NONE', #153 ) ;
#85 = CARTESIAN_POINT ( 'NONE',  ( 1.047444401652940007E-13, 2.999519565323649872E-33, 30.00000000000000000 ) ) ;
#86 =( GEOMETRIC_REPRESENTATION_CONTEXT ( 3 ) GLOBAL_UNCERTAINTY_ASSIGNED_CONTEXT ( ( #186 ) ) GLOBAL_UNIT_ASSIGNED_CONTEXT ( ( #34, #142, #18 ) ) REPRESENTATION_CONTEXT ( 'NONE', 'WORKASPACE' ) );
#87 = DIRECTION ( 'NONE',  ( 4.275831445896958607E-31, 1.000000000000000000, 1.224646799147353207E-16 ) ) ;
#88 = ADVANCED_BREP_SHAPE_REPRESENTATION ( '38245', ( #128, #50, #46 ), #86 ) ;
#89 = DESIGN_CONTEXT ( 'detailed design', #160, 'design' ) ;
#90 = ORIENTED_EDGE ( 'NONE', *, *, #152, .T. ) ;
#91 = EDGE_LOOP ( 'NONE', ( #131 ) ) ;
#92 = EDGE_CURVE ( 'NONE', #180, #180, #13, .T. ) ;
#93 = ORIENTED_EDGE ( 'NONE', *, *, #65, .F. ) ;
#94 = DATE_TIME_ROLE ( 'creation_date' ) ;
#95 = APPLICATION_CONTEXT ( 'configuration controlled 3d designs of mechanical parts and assemblies' ) ;
#96 = DATE_AND_TIME ( #135, #185 ) ;
#97 = EDGE_LOOP ( 'NONE', ( #193 ) ) ;
#98 = APPROVAL ( #76, 'UNSPECIFIED' ) ;
#99 = DIRECTION ( 'NONE',  ( 3.491481338843133355E-15, -1.224646799147353207E-16, 1.000000000000000000 ) ) ;
#100 = AXIS2_PLACEMENT_3D ( 'NONE', #12, #61, #216 ) ;
#101 = CARTESIAN_POINT ( 'NONE',  ( 1.571166602479410325E-14, -5.510910596163089556E-16, 4.500000000000000888 ) ) ;
#102 = APPROVAL_PERSON_ORGANIZATION ( #209, #60, #174 ) ;
#103 = DIRECTION ( 'NONE',  ( 0.0000000000000000000, 1.000000000000000000, 0.0000000000000000000 ) ) ;
#104 = LOCAL_TIME ( 15, 47, 47.00000000000000000, #55 ) ;
#105 = DIRECTION ( 'NONE',  ( -3.491481338843133355E-15, 1.224646799147353207E-16, -1.000000000000000000 ) ) ;
#106 = EDGE_CURVE ( 'NONE', #82, #82, #121, .T. ) ;
#107 = DIRECTION ( 'NONE',  ( -3.491481338843133355E-15, 1.224646799147353207E-16, -1.000000000000000000 ) ) ;
#108 = VERTEX_POINT ( 'NONE', #144 ) ;
#109 = CARTESIAN_POINT ( 'NONE',  ( 1.870865474734961426E-14, 0.4999999999999963363, 5.358371685740854318 ) ) ;
#110 = MECHANICAL_CONTEXT ( 'NONE', #95, 'mechanical' ) ;
#111 = CIRCLE ( 'NONE', #212, 0.2699999999999998512 ) ;
#112 = LOCAL_TIME ( 15, 47, 47.00000000000000000, #40 ) ;
#113 = ORIENTED_EDGE ( 'NONE', *, *, #92, .T. ) ;
#114 = APPROVAL_DATE_TIME ( #96, #98 ) ;
#115 = PERSON_AND_ORGANIZATION ( #23, #173 ) ;
#116 = CIRCLE ( 'NONE', #77, 0.2699999999999998512 ) ;
#117 = CLOSED_SHELL ( 'NONE', ( #80, #74, #201 ) ) ;
#118 = CALENDAR_DATE ( 2021, 7, 10 ) ;
#119 = APPROVAL_PERSON_ORGANIZATION ( #115, #98, #133 ) ;
#120 = EDGE_LOOP ( 'NONE', ( #113 ) ) ;
#121 = CIRCLE ( 'NONE', #222, 0.2699999999999989631 ) ;
#122 = DIRECTION ( 'NONE',  ( 0.0000000000000000000, 1.000000000000000000, 0.0000000000000000000 ) ) ;
#123 = DIRECTION ( 'NONE',  ( 0.0000000000000000000, 1.000000000000000000, 0.0000000000000000000 ) ) ;
#124 = EDGE_CURVE ( 'NONE', #84, #84, #205, .T. ) ;
#125 = CARTESIAN_POINT ( 'NONE',  ( 1.571166602479410325E-14, -5.510910596163089556E-16, 4.500000000000000888 ) ) ;
#126 = CYLINDRICAL_SURFACE ( 'NONE', #129, 0.2699999999999994071 ) ;
#127 = PERSON_AND_ORGANIZATION_ROLE ( 'design_owner' ) ;
#128 = MANIFOLD_SOLID_BREP ( 'Corps-Déplacer/Copier1[1]', #134 ) ;
#129 = AXIS2_PLACEMENT_3D ( 'NONE', #168, #154, #87 ) ;
#130 = PERSON_AND_ORGANIZATION_ROLE ( 'creator' ) ;
#131 = ORIENTED_EDGE ( 'NONE', *, *, #124, .F. ) ;
#132 = PERSON_AND_ORGANIZATION ( #23, #173 ) ;
#133 = APPROVAL_ROLE ( '' ) ;
#134 = CLOSED_SHELL ( 'NONE', ( #17, #157, #206, #172, #19 ) ) ;
#135 = CALENDAR_DATE ( 2021, 7, 10 ) ;
#136 = PRODUCT_DEFINITION_FORMATION_WITH_SPECIFIED_SOURCE ( 'ANY', '', #210, .NOT_KNOWN. ) ;
#137 = CARTESIAN_POINT ( 'NONE',  ( 1.047444401652940007E-13, -3.673940397442059178E-15, 30.00000000000000000 ) ) ;
#138 = DIRECTION ( 'NONE',  ( -3.491481338843133355E-15, 1.224646799147353207E-16, -1.000000000000000000 ) ) ;
#139 = PRODUCT_RELATED_PRODUCT_CATEGORY ( 'detail', '', ( #210 ) ) ;
#140 = CARTESIAN_POINT ( 'NONE',  ( 5.664312824167283181E-16, -1.986773491329671168E-17, 0.1622323671374424348 ) ) ;
#141 = CC_DESIGN_PERSON_AND_ORGANIZATION_ASSIGNMENT ( #162, #8, ( #136 ) ) ;
#142 =( NAMED_UNIT ( * ) PLANE_ANGLE_UNIT ( ) SI_UNIT ( $, .RADIAN. ) );
#143 = AXIS2_PLACEMENT_3D ( 'NONE', #137, #105, #217 ) ;
#144 = CARTESIAN_POINT ( 'NONE',  ( 1.571166602479410325E-14, 0.2699999999999992961, 4.500000000000000888 ) ) ;
#145 = CC_DESIGN_APPROVAL ( #1, ( #136 ) ) ;
#146 = EDGE_LOOP ( 'NONE', ( #26 ) ) ;
#147 = COORDINATED_UNIVERSAL_TIME_OFFSET ( 1, 0, .AHEAD. ) ;
#148 = APPROVAL_DATE_TIME ( #9, #1 ) ;
#149 = DATE_TIME_ROLE ( 'classification_date' ) ;
#150 = FACE_OUTER_BOUND ( 'NONE', #97, .T. ) ;
#151 = VERTEX_POINT ( 'NONE', #47 ) ;
#152 = EDGE_CURVE ( 'NONE', #221, #221, #2, .T. ) ;
#153 = CARTESIAN_POINT ( 'NONE',  ( 1.047444401652940007E-13, 0.3999999999999949707, 30.00000000000000000 ) ) ;
#154 = DIRECTION ( 'NONE',  ( -3.491481338843133355E-15, 1.224646799147353207E-16, -1.000000000000000000 ) ) ;
#155 = FACE_OUTER_BOUND ( 'NONE', #146, .T. ) ;
#156 = CONICAL_SURFACE ( 'NONE', #100, 0.2699999999999989631, 1.029744258676649649 ) ;
#157 = ADVANCED_FACE ( 'NONE', ( #200, #183 ), #191, .T. ) ;
#158 = ORIENTED_EDGE ( 'NONE', *, *, #124, .T. ) ;
#159 = CALENDAR_DATE ( 2021, 7, 10 ) ;
#160 = APPLICATION_CONTEXT ( 'configuration controlled 3d designs of mechanical parts and assemblies' ) ;
#161 = EDGE_LOOP ( 'NONE', ( #90 ) ) ;
#162 = PERSON_AND_ORGANIZATION ( #23, #173 ) ;
#163 = AXIS2_PLACEMENT_3D ( 'NONE', #52, #164, #28 ) ;
#164 = DIRECTION ( 'NONE',  ( 3.491481338843133355E-15, -1.224646799147353207E-16, 1.000000000000000000 ) ) ;
#165 = EDGE_CURVE ( 'NONE', #108, #108, #116, .T. ) ;
#166 = CARTESIAN_POINT ( 'NONE',  ( 1.043952920314096810E-13, 0.4999999999999947820, 29.89999999999999858 ) ) ;
#167 = CARTESIAN_POINT ( 'NONE',  ( 0.0000000000000000000, 0.0000000000000000000, 0.0000000000000000000 ) ) ;
#168 = CARTESIAN_POINT ( 'NONE',  ( 0.0000000000000000000, 0.0000000000000000000, 0.0000000000000000000 ) ) ;
#169 = CARTESIAN_POINT ( 'NONE',  ( 1.047444401652940007E-13, -3.673940397442059178E-15, 30.00000000000000000 ) ) ;
#170 = AXIS2_PLACEMENT_3D ( 'NONE', #85, #138, #49 ) ;
#171 = CC_DESIGN_DATE_AND_TIME_ASSIGNMENT ( #43, #94, ( #189 ) ) ;
#172 = ADVANCED_FACE ( 'NONE', ( #33, #29 ), #37, .T. ) ;
#173 = ORGANIZATION ( 'UNSPECIFIED', 'UNSPECIFIED', '' ) ;
#174 = APPROVAL_ROLE ( '' ) ;
#175 = CC_DESIGN_DATE_AND_TIME_ASSIGNMENT ( #208, #149, ( #218 ) ) ;
#176 = CARTESIAN_POINT ( 'NONE',  ( 1.571166602479410325E-14, -1.041965019064448721E-31, 4.500000000000000888 ) ) ;
#177 = EDGE_LOOP ( 'NONE', ( #195 ) ) ;
#178 = COORDINATED_UNIVERSAL_TIME_OFFSET ( 1, 0, .AHEAD. ) ;
#179 = CARTESIAN_POINT ( 'NONE',  ( 1.870865474734961426E-14, -6.562112733584345275E-16, 5.358371685740854318 ) ) ;
#180 = VERTEX_POINT ( 'NONE', #166 ) ;
#181 = FACE_OUTER_BOUND ( 'NONE', #177, .T. ) ;
#182 = DIRECTION ( 'NONE',  ( -3.491481338843133355E-15, 1.224646799147353207E-16, -1.000000000000000000 ) ) ;
#183 = FACE_OUTER_BOUND ( 'NONE', #161, .T. ) ;
#184 = AXIS2_PLACEMENT_3D ( 'NONE', #176, #68, #78 ) ;
#185 = LOCAL_TIME ( 15, 47, 47.00000000000000000, #147 ) ;
#186 = UNCERTAINTY_MEASURE_WITH_UNIT (LENGTH_MEASURE( 1.000000000000000082E-05 ), #34, 'distance_accuracy_value', 'NONE');
#187 = APPROVAL_PERSON_ORGANIZATION ( #54, #1, #20 ) ;
#188 = DIRECTION ( 'NONE',  ( 0.0000000000000000000, 0.0000000000000000000, 1.000000000000000000 ) ) ;
#189 = PRODUCT_DEFINITION ( 'UNKNOWN', '', #136, #89 ) ;
#190 = APPLICATION_PROTOCOL_DEFINITION ( 'international standard', 'config_control_design', 1994, #160 ) ;
#191 = CONICAL_SURFACE ( 'NONE', #10, 0.4999999999999970024, 0.2617993877991427465 ) ;
#192 = PERSON_AND_ORGANIZATION ( #23, #173 ) ;
#193 = ORIENTED_EDGE ( 'NONE', *, *, #152, .F. ) ;
#194 = CALENDAR_DATE ( 2021, 7, 10 ) ;
#195 = ORIENTED_EDGE ( 'NONE', *, *, #106, .F. ) ;
#196 = CALENDAR_DATE ( 2021, 7, 10 ) ;
#197 = ORIENTED_EDGE ( 'NONE', *, *, #106, .T. ) ;
#198 = DIRECTION ( 'NONE',  ( -3.491481338843133355E-15, 1.224646799147353207E-16, -1.000000000000000000 ) ) ;
#199 = DIRECTION ( 'NONE',  ( 3.566536934050450551E-31, 1.000000000000000000, 1.003890900449545023E-16 ) ) ;
#200 = FACE_BOUND ( 'NONE', #39, .T. ) ;
#201 = ADVANCED_FACE ( 'NONE', ( #62 ), #14, .T. ) ;
#202 = DIRECTION ( 'NONE',  ( -3.491481338843133355E-15, 1.224646799147353207E-16, -1.000000000000000000 ) ) ;
#203 = AXIS2_PLACEMENT_3D ( 'NONE', #169, #219, #103 ) ;
#204 = DIRECTION ( 'NONE',  ( 0.0000000000000000000, 1.000000000000000000, 0.0000000000000000000 ) ) ;
#205 = CIRCLE ( 'NONE', #143, 0.3999999999999986899 ) ;
#206 = ADVANCED_FACE ( 'NONE', ( #150, #214 ), #57, .T. ) ;
#207 = EDGE_LOOP ( 'NONE', ( #22 ) ) ;
#208 = DATE_AND_TIME ( #194, #112 ) ;
#209 = PERSON_AND_ORGANIZATION ( #23, #173 ) ;
#210 = PRODUCT ( '38245', '38245', '', ( #110 ) ) ;
#211 = EDGE_LOOP ( 'NONE', ( #93 ) ) ;
#212 = AXIS2_PLACEMENT_3D ( 'NONE', #125, #182, #204 ) ;
#213 = PERSON_AND_ORGANIZATION_ROLE ( 'creator' ) ;
#214 = FACE_OUTER_BOUND ( 'NONE', #120, .T. ) ;
#215 = CARTESIAN_POINT ( 'NONE',  ( 5.664312824167284167E-16, 0.2699999999999989631, 0.1622323671374424625 ) ) ;
#216 = DIRECTION ( 'NONE',  ( -3.566536934050450551E-31, -1.000000000000000000, -1.003890900449545023E-16 ) ) ;
#217 = DIRECTION ( 'NONE',  ( 0.0000000000000000000, 1.000000000000000000, 0.0000000000000000000 ) ) ;
#218 = SECURITY_CLASSIFICATION ( '', '', #71 ) ;
#219 = DIRECTION ( 'NONE',  ( -3.491481338843133355E-15, 1.224646799147353207E-16, -1.000000000000000000 ) ) ;
#220 = AXIS2_PLACEMENT_3D ( 'NONE', #31, #51, #122 ) ;
#221 = VERTEX_POINT ( 'NONE', #109 ) ;
#222 = AXIS2_PLACEMENT_3D ( 'NONE', #140, #202, #199 ) ;
#223 = APPLICATION_PROTOCOL_DEFINITION ( 'international standard', 'config_control_design', 1994, #95 ) ;
ENDSEC;
END-ISO-10303-21;
