ISO-10303-21;
HEADER;
FILE_DESCRIPTION (( 'STEP AP203' ),
    '1' );
FILE_NAME ('381957.step',
    '2022-01-11T10:23:05',
    ( '' ),
    ( '' ),
    'SwSTEP 2.0',
    'SolidWorks 2019',
    '' );
FILE_SCHEMA (( 'CONFIG_CONTROL_DESIGN' ));
ENDSEC;

DATA;
#1 = DATE_TIME_ROLE ( 'classification_date' ) ;
#2 = AXIS2_PLACEMENT_3D ( 'NONE', #131, #55, #58 ) ;
#3 = EDGE_LOOP ( 'NONE', ( #192 ) ) ;
#4 = EDGE_LOOP ( 'NONE', ( #25 ) ) ;
#5 = CARTESIAN_POINT ( 'NONE',  ( 8.030407079339206717E-15, -2.816687638038912056E-16, 2.299999999999999822 ) ) ;
#6 = LOCAL_TIME ( 11, 23, 5.000000000000000000, #147 ) ;
#7 = FACE_OUTER_BOUND ( 'NONE', #225, .T. ) ;
#8 = ADVANCED_FACE ( 'NONE', ( #78, #280 ), #37, .F. ) ;
#9 = CARTESIAN_POINT ( 'NONE',  ( 1.326762908760390423E-13, -4.653657836759941941E-15, 38.00000000000000000 ) ) ;
#10 = DIRECTION ( 'NONE',  ( 3.491481338843133355E-15, -1.212436186278512867E-16, 1.000000000000000000 ) ) ;
#11 = ADVANCED_FACE ( 'NONE', ( #258 ), #180, .T. ) ;
#12 = DIRECTION ( 'NONE',  ( 3.491481338843133355E-15, -1.224646799147353207E-16, 1.000000000000000000 ) ) ;
#13 = LOCAL_TIME ( 11, 23, 5.000000000000000000, #191 ) ;
#14 = CARTESIAN_POINT ( 'NONE',  ( 3.247077645124114651E-14, -1.173965982140610312E-15, 9.300000000000002487 ) ) ;
#15 = MANIFOLD_SOLID_BREP ( 'Corps-Déplacer/Copier4[1]', #293 ) ;
#16 = CYLINDRICAL_SURFACE ( 'NONE', #106, 1.959999999999999964 ) ;
#17 = CARTESIAN_POINT ( 'NONE',  ( 1.361677722148822166E-14, -5.192504415502135663E-16, 3.900000000000000799 ) ) ;
#18 = CONICAL_SURFACE ( 'NONE', #322, 1.149999999999999467, 0.2094395102393127872 ) ;
#19 = FACE_OUTER_BOUND ( 'NONE', #119, .T. ) ;
#20 = PLANE ( 'NONE',  #305 ) ;
#21 = APPROVAL_DATE_TIME ( #295, #142 ) ;
#22 = CARTESIAN_POINT ( 'NONE',  ( 8.030407079339217761E-15, -0.7500000000000002220, 2.300000000000003375 ) ) ;
#23 = DATE_AND_TIME ( #48, #13 ) ;
#24 = ADVANCED_BREP_SHAPE_REPRESENTATION ( '381957', ( #15, #231, #287 ), #310 ) ;
#25 = ORIENTED_EDGE ( 'NONE', *, *, #28, .T. ) ;
#26 = PERSON_AND_ORGANIZATION ( #235, #47 ) ;
#27 = ORIENTED_EDGE ( 'NONE', *, *, #268, .T. ) ;
#28 = EDGE_CURVE ( 'NONE', #282, #282, #222, .T. ) ;
#29 = DIRECTION ( 'NONE',  ( 0.0000000000000000000, 0.0000000000000000000, 1.000000000000000000 ) ) ;
#30 = AXIS2_PLACEMENT_3D ( 'NONE', #105, #77, #300 ) ;
#31 = EDGE_LOOP ( 'NONE', ( #124 ) ) ;
#32 = DIRECTION ( 'NONE',  ( 0.0000000000000000000, -1.000000000000000000, 0.0000000000000000000 ) ) ;
#33 = EDGE_CURVE ( 'NONE', #208, #208, #303, .T. ) ;
#34 = DIRECTION ( 'NONE',  ( 3.491481338843133355E-15, -1.212436186278512867E-16, 1.000000000000000000 ) ) ;
#35 = DIRECTION ( 'NONE',  ( 4.233198318929564307E-31, 1.000000000000000000, 1.212436186278512867E-16 ) ) ;
#36 = DIRECTION ( 'NONE',  ( 0.0000000000000000000, -1.000000000000000000, 0.0000000000000000000 ) ) ;
#37 = PLANE ( 'NONE',  #59 ) ;
#38 = VERTEX_POINT ( 'NONE', #162 ) ;
#39 = CARTESIAN_POINT ( 'NONE',  ( 1.312796983405018142E-13, -4.605160389308800864E-15, 37.59999999999999432 ) ) ;
#40 = CC_DESIGN_DATE_AND_TIME_ASSIGNMENT ( #23, #1, ( #182 ) ) ;
#41 = VERTEX_POINT ( 'NONE', #264 ) ;
#42 = CARTESIAN_POINT ( 'NONE',  ( 3.247077645124114651E-14, -1.173965982140610312E-15, 9.300000000000002487 ) ) ;
#43 = AXIS2_PLACEMENT_3D ( 'NONE', #202, #154, #35 ) ;
#44 = DIRECTION ( 'NONE',  ( 3.491481338843133355E-15, -1.212436186278512867E-16, 1.000000000000000000 ) ) ;
#45 = DATE_TIME_ROLE ( 'creation_date' ) ;
#46 = ORIENTED_EDGE ( 'NONE', *, *, #196, .F. ) ;
#47 = ORGANIZATION ( 'UNSPECIFIED', 'UNSPECIFIED', '' ) ;
#48 = CALENDAR_DATE ( 2022, 11, 1 ) ;
#49 = ORIENTED_EDGE ( 'NONE', *, *, #268, .F. ) ;
#50 = PERSON_AND_ORGANIZATION ( #235, #47 ) ;
#51 = EDGE_CURVE ( 'NONE', #183, #183, #278, .T. ) ;
#52 = ORIENTED_EDGE ( 'NONE', *, *, #189, .F. ) ;
#53 = APPLICATION_PROTOCOL_DEFINITION ( 'international standard', 'config_control_design', 1994, #171 ) ;
#54 = EDGE_LOOP ( 'NONE', ( #83 ) ) ;
#55 = DIRECTION ( 'NONE',  ( 3.491481338843133355E-15, -1.212436186278512867E-16, 1.000000000000000000 ) ) ;
#56 = PLANE ( 'NONE',  #43 ) ;
#57 = TOROIDAL_SURFACE ( 'NONE', #97, 2.750000000000000444, 2.000000000000000000 ) ;
#58 = DIRECTION ( 'NONE',  ( 0.0000000000000000000, -1.000000000000000000, 0.0000000000000000000 ) ) ;
#59 = AXIS2_PLACEMENT_3D ( 'NONE', #176, #257, #159 ) ;
#60 = CARTESIAN_POINT ( 'NONE',  ( 0.0000000000000000000, 0.0000000000000000000, 0.0000000000000000000 ) ) ;
#61 = CARTESIAN_POINT ( 'NONE',  ( -2.993155244651669477E-31, 1.049857534374886559E-32, -8.572737340315904260E-17 ) ) ;
#62 = LOCAL_TIME ( 11, 23, 5.000000000000000000, #289 ) ;
#63 = CARTESIAN_POINT ( 'NONE',  ( 2.137183397710474803E-32, 0.7499999999999995559, 6.121136532892404794E-18 ) ) ;
#64 = EDGE_CURVE ( 'NONE', #38, #38, #122, .T. ) ;
#65 = DIRECTION ( 'NONE',  ( 3.491481338843133355E-15, -1.212436186278512867E-16, 1.000000000000000000 ) ) ;
#66 = DIRECTION ( 'NONE',  ( -4.233198318929564307E-31, -1.000000000000000000, -1.212436186278512867E-16 ) ) ;
#67 = CARTESIAN_POINT ( 'NONE',  ( 1.326762908760390423E-13, -4.653657836759941941E-15, 38.00000000000000000 ) ) ;
#68 = EDGE_CURVE ( 'NONE', #263, #263, #167, .T. ) ;
#69 = AXIS2_PLACEMENT_3D ( 'NONE', #14, #65, #186 ) ;
#70 = PERSON_AND_ORGANIZATION ( #235, #47 ) ;
#71 = EDGE_LOOP ( 'NONE', ( #96 ) ) ;
#72 = EDGE_LOOP ( 'NONE', ( #197 ) ) ;
#73 = AXIS2_PLACEMENT_3D ( 'NONE', #166, #237, #185 ) ;
#74 = ORIENTED_EDGE ( 'NONE', *, *, #196, .T. ) ;
#75 = ORIENTED_EDGE ( 'NONE', *, *, #139, .T. ) ;
#76 = COORDINATED_UNIVERSAL_TIME_OFFSET ( 1, 0, .AHEAD. ) ;
#77 = DIRECTION ( 'NONE',  ( 3.491481338843133355E-15, -1.212436186278512867E-16, 1.000000000000000000 ) ) ;
#78 = FACE_OUTER_BOUND ( 'NONE', #146, .T. ) ;
#79 = CARTESIAN_POINT ( 'NONE',  ( -1.496577622325834738E-31, 5.249287671874432797E-33, -4.286368670157952130E-17 ) ) ;
#80 = AXIS2_PLACEMENT_3D ( 'NONE', #9, #10, #36 ) ;
#81 = CC_DESIGN_PERSON_AND_ORGANIZATION_ASSIGNMENT ( #245, #123, ( #312 ) ) ;
#82 = FACE_OUTER_BOUND ( 'NONE', #252, .T. ) ;
#83 = ORIENTED_EDGE ( 'NONE', *, *, #51, .T. ) ;
#84 = FACE_OUTER_BOUND ( 'NONE', #270, .T. ) ;
#85 = APPROVAL ( #226, 'UNSPECIFIED' ) ;
#86 = CARTESIAN_POINT ( 'NONE',  ( 1.312796983405018142E-13, -2.000000000000001776, 37.59999999999999432 ) ) ;
#87 = CARTESIAN_POINT ( 'NONE',  ( 8.030407079339217761E-15, -3.252606517456513302E-16, 2.300000000000003375 ) ) ;
#88 = DIRECTION ( 'NONE',  ( 0.0000000000000000000, -1.000000000000000000, 0.0000000000000000000 ) ) ;
#89 = CARTESIAN_POINT ( 'NONE',  ( 1.222018468595097779E-14, -4.707529940990727854E-16, 3.500000000000003109 ) ) ;
#90 = APPROVAL_ROLE ( '' ) ;
#91 = EDGE_LOOP ( 'NONE', ( #46 ) ) ;
#92 = PERSON_AND_ORGANIZATION_ROLE ( 'classification_officer' ) ;
#93 = ORIENTED_EDGE ( 'NONE', *, *, #51, .F. ) ;
#94 = ADVANCED_FACE ( 'NONE', ( #201, #256 ), #18, .T. ) ;
#95 = CALENDAR_DATE ( 2022, 11, 1 ) ;
#96 = ORIENTED_EDGE ( 'NONE', *, *, #296, .F. ) ;
#97 = AXIS2_PLACEMENT_3D ( 'NONE', #199, #103, #207 ) ;
#98 = PERSON_AND_ORGANIZATION ( #235, #47 ) ;
#99 = ORIENTED_EDGE ( 'NONE', *, *, #189, .T. ) ;
#100 = DIRECTION ( 'NONE',  ( -4.275831445896958607E-31, -1.000000000000000000, -1.224646799147353207E-16 ) ) ;
#101 = CIRCLE ( 'NONE', #283, 0.7904082057734580502 ) ;
#102 = DIRECTION ( 'NONE',  ( 0.0000000000000000000, -1.000000000000000000, 0.0000000000000000000 ) ) ;
#103 = DIRECTION ( 'NONE',  ( 3.491481338843133355E-15, -1.212436186278512867E-16, 1.000000000000000000 ) ) ;
#104 = PRODUCT ( '381957', '381957', '', ( #143 ) ) ;
#105 = CARTESIAN_POINT ( 'NONE',  ( 1.326762908760390423E-13, -4.653657836759941941E-15, 38.00000000000000000 ) ) ;
#106 = AXIS2_PLACEMENT_3D ( 'NONE', #67, #265, #242 ) ;
#107 = FACE_BOUND ( 'NONE', #218, .T. ) ;
#108 = CARTESIAN_POINT ( 'NONE',  ( 8.030407079339206717E-15, 0.7499999999999995559, 2.299999999999999822 ) ) ;
#109 = AXIS2_PLACEMENT_3D ( 'NONE', #89, #284, #140 ) ;
#110 = CYLINDRICAL_SURFACE ( 'NONE', #73, 1.999999999999996669 ) ;
#111 = CC_DESIGN_PERSON_AND_ORGANIZATION_ASSIGNMENT ( #26, #223, ( #217 ) ) ;
#112 = VERTEX_POINT ( 'NONE', #259 ) ;
#113 = DIRECTION ( 'NONE',  ( -4.233198318929564307E-31, -1.000000000000000000, -1.212436186278512867E-16 ) ) ;
#114 = EDGE_LOOP ( 'NONE', ( #152 ) ) ;
#115 = APPROVAL_PERSON_ORGANIZATION ( #141, #142, #219 ) ;
#116 = VERTEX_POINT ( 'NONE', #22 ) ;
#117 = CALENDAR_DATE ( 2022, 11, 1 ) ;
#118 = EDGE_LOOP ( 'NONE', ( #27 ) ) ;
#119 = EDGE_LOOP ( 'NONE', ( #198 ) ) ;
#120 = CLOSED_SHELL ( 'NONE', ( #129, #184, #11 ) ) ;
#121 = CC_DESIGN_APPROVAL ( #142, ( #217 ) ) ;
#122 = CIRCLE ( 'NONE', #2, 1.149999999999999467 ) ;
#123 = PERSON_AND_ORGANIZATION_ROLE ( 'creator' ) ;
#124 = ORIENTED_EDGE ( 'NONE', *, *, #68, .T. ) ;
#125 = CALENDAR_DATE ( 2022, 11, 1 ) ;
#126 = FACE_OUTER_BOUND ( 'NONE', #4, .T. ) ;
#127 = CARTESIAN_POINT ( 'NONE',  ( 1.361677722148822166E-14, -5.192504415502135663E-16, 3.900000000000000799 ) ) ;
#128 = FACE_OUTER_BOUND ( 'NONE', #250, .T. ) ;
#129 = ADVANCED_FACE ( 'NONE', ( #126 ), #227, .F. ) ;
#130 = DIRECTION ( 'NONE',  ( 4.275831445896958607E-31, 1.000000000000000000, 1.224646799147353454E-16 ) ) ;
#131 = CARTESIAN_POINT ( 'NONE',  ( 1.361677722148822166E-14, -5.192504415502135663E-16, 3.900000000000000799 ) ) ;
#132 = CIRCLE ( 'NONE', #69, 1.959999999999999964 ) ;
#133 = CARTESIAN_POINT ( 'NONE',  ( 3.247077645124114651E-14, -1.960000000000001297, 9.300000000000002487 ) ) ;
#134 = FACE_BOUND ( 'NONE', #114, .T. ) ;
#135 = DIRECTION ( 'NONE',  ( 4.275831445896958607E-31, 1.000000000000000000, 1.224646799147353207E-16 ) ) ;
#136 = DIRECTION ( 'NONE',  ( 0.0000000000000000000, -1.000000000000000000, 0.0000000000000000000 ) ) ;
#137 = APPLICATION_CONTEXT ( 'configuration controlled 3d designs of mechanical parts and assemblies' ) ;
#138 = AXIS2_PLACEMENT_3D ( 'NONE', #277, #34, #102 ) ;
#139 = EDGE_CURVE ( 'NONE', #41, #41, #204, .T. ) ;
#140 = DIRECTION ( 'NONE',  ( 0.0000000000000000000, -1.000000000000000000, 0.0000000000000000000 ) ) ;
#141 = PERSON_AND_ORGANIZATION ( #235, #47 ) ;
#142 = APPROVAL ( #243, 'UNSPECIFIED' ) ;
#143 = MECHANICAL_CONTEXT ( 'NONE', #137, 'mechanical' ) ;
#144 = AXIS2_PLACEMENT_3D ( 'NONE', #42, #161, #136 ) ;
#145 = DIRECTION ( 'NONE',  ( 1.000000000000000000, 0.0000000000000000000, 0.0000000000000000000 ) ) ;
#146 = EDGE_LOOP ( 'NONE', ( #290 ) ) ;
#147 = COORDINATED_UNIVERSAL_TIME_OFFSET ( 1, 0, .AHEAD. ) ;
#148 = PRODUCT_DEFINITION_SHAPE ( 'NONE', 'NONE',  #312 ) ;
#149 = APPROVAL_DATE_TIME ( #220, #236 ) ;
#150 = ORIENTED_EDGE ( 'NONE', *, *, #28, .F. ) ;
#151 = CONICAL_SURFACE ( 'NONE', #211, 1.999999999999997113, 0.7853981633974433940 ) ;
#152 = ORIENTED_EDGE ( 'NONE', *, *, #68, .F. ) ;
#153 = ADVANCED_FACE ( 'NONE', ( #7, #304 ), #57, .F. ) ;
#154 = DIRECTION ( 'NONE',  ( -3.491481338843133355E-15, 1.212436186278512867E-16, -1.000000000000000000 ) ) ;
#155 = AXIS2_PLACEMENT_3D ( 'NONE', #61, #299, #130 ) ;
#156 = APPROVAL_PERSON_ORGANIZATION ( #50, #236, #90 ) ;
#157 = APPROVAL_ROLE ( '' ) ;
#158 = SHAPE_DEFINITION_REPRESENTATION ( #148, #24 ) ;
#159 = DIRECTION ( 'NONE',  ( -4.233198318929564307E-31, -1.000000000000000000, -1.212436186278512867E-16 ) ) ;
#160 = CARTESIAN_POINT ( 'NONE',  ( 1.326762908760390423E-13, -1.600000000000000977, 38.00000000000000000 ) ) ;
#161 = DIRECTION ( 'NONE',  ( 3.491481338843133355E-15, -1.212436186278512867E-16, 1.000000000000000000 ) ) ;
#162 = CARTESIAN_POINT ( 'NONE',  ( 1.361677722148822166E-14, -1.149999999999999911, 3.900000000000000799 ) ) ;
#163 = ADVANCED_FACE ( 'NONE', ( #276 ), #56, .F. ) ;
#164 = DIRECTION ( 'NONE',  ( 0.0000000000000000000, -1.000000000000000000, 0.0000000000000000000 ) ) ;
#165 = CIRCLE ( 'NONE', #200, 0.7499999999999998890 ) ;
#166 = CARTESIAN_POINT ( 'NONE',  ( 1.326762908760390423E-13, -4.653657836759941941E-15, 38.00000000000000000 ) ) ;
#167 = CIRCLE ( 'NONE', #30, 1.599999999999996314 ) ;
#168 = APPROVAL_STATUS ( 'not_yet_approved' ) ;
#169 = CARTESIAN_POINT ( 'NONE',  ( 0.0000000000000000000, 0.0000000000000000000, 0.0000000000000000000 ) ) ;
#170 = APPLICATION_PROTOCOL_DEFINITION ( 'international standard', 'config_control_design', 1994, #137 ) ;
#171 = APPLICATION_CONTEXT ( 'configuration controlled 3d designs of mechanical parts and assemblies' ) ;
#172 = EDGE_LOOP ( 'NONE', ( #99 ) ) ;
#173 = LOCAL_TIME ( 11, 23, 5.000000000000000000, #76 ) ;
#174 = DIRECTION ( 'NONE',  ( -3.491481338843133355E-15, 1.224646799147353207E-16, -1.000000000000000000 ) ) ;
#175 = CC_DESIGN_DATE_AND_TIME_ASSIGNMENT ( #266, #45, ( #312 ) ) ;
#176 = CARTESIAN_POINT ( 'NONE',  ( 1.361677722148822009E-14, 0.7904082057734576061, 3.899999999999999911 ) ) ;
#177 = CARTESIAN_POINT ( 'NONE',  ( 8.030407079339206717E-15, 5.624099184981960556E-33, 2.299999999999999822 ) ) ;
#178 = ADVANCED_FACE ( 'NONE', ( #128, #307 ), #230, .T. ) ;
#179 = FACE_OUTER_BOUND ( 'NONE', #272, .T. ) ;
#180 = PLANE ( 'NONE',  #306 ) ;
#181 = CARTESIAN_POINT ( 'NONE',  ( 3.247077645124114651E-14, 1.999999999999995337, 9.300000000000000711 ) ) ;
#182 = SECURITY_CLASSIFICATION ( '', '', #319 ) ;
#183 = VERTEX_POINT ( 'NONE', #285 ) ;
#184 = ADVANCED_FACE ( 'NONE', ( #82, #179 ), #279, .T. ) ;
#185 = DIRECTION ( 'NONE',  ( 0.0000000000000000000, -1.000000000000000000, 0.0000000000000000000 ) ) ;
#186 = DIRECTION ( 'NONE',  ( 0.0000000000000000000, -1.000000000000000000, 0.0000000000000000000 ) ) ;
#187 = CC_DESIGN_APPROVAL ( #85, ( #182 ) ) ;
#188 = FACE_OUTER_BOUND ( 'NONE', #71, .T. ) ;
#189 = EDGE_CURVE ( 'NONE', #240, #240, #101, .T. ) ;
#190 = PERSON_AND_ORGANIZATION ( #235, #47 ) ;
#191 = COORDINATED_UNIVERSAL_TIME_OFFSET ( 1, 0, .AHEAD. ) ;
#192 = ORIENTED_EDGE ( 'NONE', *, *, #33, .F. ) ;
#193 = AXIS2_PLACEMENT_3D ( 'NONE', #5, #174, #232 ) ;
#194 =( NAMED_UNIT ( * ) SI_UNIT ( $, .STERADIAN. ) SOLID_ANGLE_UNIT ( ) );
#195 = EDGE_LOOP ( 'NONE', ( #248 ) ) ;
#196 = EDGE_CURVE ( 'NONE', #112, #112, #274, .T. ) ;
#197 = ORIENTED_EDGE ( 'NONE', *, *, #296, .T. ) ;
#198 = ORIENTED_EDGE ( 'NONE', *, *, #210, .F. ) ;
#199 = CARTESIAN_POINT ( 'NONE',  ( 1.222018468595096674E-14, -4.336808689942017736E-16, 3.500000000000000000 ) ) ;
#200 = AXIS2_PLACEMENT_3D ( 'NONE', #87, #309, #164 ) ;
#201 = FACE_OUTER_BOUND ( 'NONE', #224, .T. ) ;
#202 = CARTESIAN_POINT ( 'NONE',  ( 1.326762908760390423E-13, -4.653657836759941941E-15, 38.00000000000000000 ) ) ;
#203 = DIRECTION ( 'NONE',  ( 3.491481338843133355E-15, -1.212436186278512867E-16, 1.000000000000000000 ) ) ;
#204 = CIRCLE ( 'NONE', #193, 0.7499999999999998890 ) ;
#205 = CC_DESIGN_APPROVAL ( #236, ( #312 ) ) ;
#206 = AXIS2_PLACEMENT_3D ( 'NONE', #79, #12, #100 ) ;
#207 = DIRECTION ( 'NONE',  ( -4.289104201883794854E-31, -1.000000000000000000, -1.212436186278512867E-16 ) ) ;
#208 = VERTEX_POINT ( 'NONE', #86 ) ;
#209 = FACE_OUTER_BOUND ( 'NONE', #54, .T. ) ;
#210 = EDGE_CURVE ( 'NONE', #214, #214, #132, .T. ) ;
#211 = AXIS2_PLACEMENT_3D ( 'NONE', #39, #313, #286 ) ;
#212 = DIRECTION ( 'NONE',  ( 3.491481338843133355E-15, -1.212436186278512867E-16, 1.000000000000000000 ) ) ;
#213 = UNCERTAINTY_MEASURE_WITH_UNIT (LENGTH_MEASURE( 1.000000000000000082E-05 ), #251, 'distance_accuracy_value', 'NONE');
#214 = VERTEX_POINT ( 'NONE', #133 ) ;
#215 = CC_DESIGN_PERSON_AND_ORGANIZATION_ASSIGNMENT ( #70, #246, ( #104 ) ) ;
#216 = FACE_OUTER_BOUND ( 'NONE', #91, .T. ) ;
#217 = PRODUCT_DEFINITION_FORMATION_WITH_SPECIFIED_SOURCE ( 'ANY', '', #104, .NOT_KNOWN. ) ;
#218 = EDGE_LOOP ( 'NONE', ( #318 ) ) ;
#219 = APPROVAL_ROLE ( '' ) ;
#220 = DATE_AND_TIME ( #95, #260 ) ;
#221 = EDGE_LOOP ( 'NONE', ( #267 ) ) ;
#222 = CIRCLE ( 'NONE', #155, 0.7499999999999995559 ) ;
#223 = PERSON_AND_ORGANIZATION_ROLE ( 'creator' ) ;
#224 = EDGE_LOOP ( 'NONE', ( #93 ) ) ;
#225 = EDGE_LOOP ( 'NONE', ( #52 ) ) ;
#226 = APPROVAL_STATUS ( 'not_yet_approved' ) ;
#227 = PLANE ( 'NONE',  #206 ) ;
#228 = DIRECTION ( 'NONE',  ( 0.0000000000000000000, -1.000000000000000000, 0.0000000000000000000 ) ) ;
#229 = APPROVAL_PERSON_ORGANIZATION ( #98, #85, #157 ) ;
#230 = CYLINDRICAL_SURFACE ( 'NONE', #80, 0.7500000000000000000 ) ;
#231 = MANIFOLD_SOLID_BREP ( 'Corps-Déplacer/Copier4[2]', #120 ) ;
#232 = DIRECTION ( 'NONE',  ( 0.0000000000000000000, 1.000000000000000000, 0.0000000000000000000 ) ) ;
#233 = CC_DESIGN_SECURITY_CLASSIFICATION ( #182, ( #217 ) ) ;
#234 = VERTEX_POINT ( 'NONE', #292 ) ;
#235 = PERSON ( 'UNSPECIFIED', 'UNSPECIFIED', 'UNSPECIFIED', ('UNSPECIFIED'), ('UNSPECIFIED'), ('UNSPECIFIED') ) ;
#236 = APPROVAL ( #168, 'UNSPECIFIED' ) ;
#237 = DIRECTION ( 'NONE',  ( 3.491481338843133355E-15, -1.212436186278512867E-16, 1.000000000000000000 ) ) ;
#238 = FACE_OUTER_BOUND ( 'NONE', #320, .T. ) ;
#239 = AXIS2_PLACEMENT_3D ( 'NONE', #254, #275, #32 ) ;
#240 = VERTEX_POINT ( 'NONE', #288 ) ;
#241 = DESIGN_CONTEXT ( 'detailed design', #171, 'design' ) ;
#242 = DIRECTION ( 'NONE',  ( 0.0000000000000000000, -1.000000000000000000, 0.0000000000000000000 ) ) ;
#243 = APPROVAL_STATUS ( 'not_yet_approved' ) ;
#244 = AXIS2_PLACEMENT_3D ( 'NONE', #60, #308, #135 ) ;
#245 = PERSON_AND_ORGANIZATION ( #235, #47 ) ;
#246 = PERSON_AND_ORGANIZATION_ROLE ( 'design_owner' ) ;
#247 = ADVANCED_FACE ( 'NONE', ( #134, #84 ), #151, .T. ) ;
#248 = ORIENTED_EDGE ( 'NONE', *, *, #64, .T. ) ;
#249 =( NAMED_UNIT ( * ) PLANE_ANGLE_UNIT ( ) SI_UNIT ( $, .RADIAN. ) );
#250 = EDGE_LOOP ( 'NONE', ( #49 ) ) ;
#251 =( LENGTH_UNIT ( ) NAMED_UNIT ( * ) SI_UNIT ( .MILLI., .METRE. ) );
#252 = EDGE_LOOP ( 'NONE', ( #150 ) ) ;
#253 = ADVANCED_FACE ( 'NONE', ( #314, #238 ), #110, .T. ) ;
#254 = CARTESIAN_POINT ( 'NONE',  ( 1.312796983405018142E-13, -4.605160389308800864E-15, 37.59999999999999432 ) ) ;
#255 = DIRECTION ( 'NONE',  ( 3.491481338843133355E-15, -1.224646799147353207E-16, 1.000000000000000000 ) ) ;
#256 = FACE_BOUND ( 'NONE', #195, .T. ) ;
#257 = DIRECTION ( 'NONE',  ( 3.491481338843133355E-15, -1.212436186278512867E-16, 1.000000000000000000 ) ) ;
#258 = FACE_OUTER_BOUND ( 'NONE', #221, .T. ) ;
#259 = CARTESIAN_POINT ( 'NONE',  ( 3.247077645124114651E-14, -1.999999999999997780, 9.300000000000002487 ) ) ;
#260 = LOCAL_TIME ( 11, 23, 5.000000000000000000, #271 ) ;
#261 = CC_DESIGN_PERSON_AND_ORGANIZATION_ASSIGNMENT ( #190, #92, ( #182 ) ) ;
#262 = PLANE ( 'NONE',  #315 ) ;
#263 = VERTEX_POINT ( 'NONE', #160 ) ;
#264 = CARTESIAN_POINT ( 'NONE',  ( 8.030407079339206717E-15, 0.7499999999999995559, 2.299999999999999822 ) ) ;
#265 = DIRECTION ( 'NONE',  ( 3.491481338843133355E-15, -1.212436186278512867E-16, 1.000000000000000000 ) ) ;
#266 = DATE_AND_TIME ( #117, #62 ) ;
#267 = ORIENTED_EDGE ( 'NONE', *, *, #139, .F. ) ;
#268 = EDGE_CURVE ( 'NONE', #234, #234, #294, .T. ) ;
#269 = CALENDAR_DATE ( 2022, 11, 1 ) ;
#270 = EDGE_LOOP ( 'NONE', ( #298 ) ) ;
#271 = COORDINATED_UNIVERSAL_TIME_OFFSET ( 1, 0, .AHEAD. ) ;
#272 = EDGE_LOOP ( 'NONE', ( #75 ) ) ;
#273 = PRODUCT_RELATED_PRODUCT_CATEGORY ( 'detail', '', ( #104 ) ) ;
#274 = CIRCLE ( 'NONE', #144, 1.999999999999996669 ) ;
#275 = DIRECTION ( 'NONE',  ( 3.491481338843133355E-15, -1.212436186278512867E-16, 1.000000000000000000 ) ) ;
#276 = FACE_OUTER_BOUND ( 'NONE', #31, .T. ) ;
#277 = CARTESIAN_POINT ( 'NONE',  ( 2.692194109054554110E-14, -9.812796083609857813E-16, 7.710750388677675815 ) ) ;
#278 = CIRCLE ( 'NONE', #138, 1.959999999999999964 ) ;
#279 = CYLINDRICAL_SURFACE ( 'NONE', #244, 0.7499999999999997780 ) ;
#280 = FACE_BOUND ( 'NONE', #172, .T. ) ;
#281 = ADVANCED_FACE ( 'NONE', ( #19, #209 ), #16, .T. ) ;
#282 = VERTEX_POINT ( 'NONE', #63 ) ;
#283 = AXIS2_PLACEMENT_3D ( 'NONE', #17, #44, #88 ) ;
#284 = DIRECTION ( 'NONE',  ( 3.491481338843133355E-15, -1.212436186278512867E-16, 1.000000000000000000 ) ) ;
#285 = CARTESIAN_POINT ( 'NONE',  ( 2.692194109054554110E-14, -1.960000000000000853, 7.710750388677675815 ) ) ;
#286 = DIRECTION ( 'NONE',  ( 0.0000000000000000000, 1.000000000000000000, 0.0000000000000000000 ) ) ;
#287 = AXIS2_PLACEMENT_3D ( 'NONE', #169, #29, #145 ) ;
#288 = CARTESIAN_POINT ( 'NONE',  ( 1.361677722148822166E-14, -0.7904082057734586053, 3.900000000000000799 ) ) ;
#289 = COORDINATED_UNIVERSAL_TIME_OFFSET ( 1, 0, .AHEAD. ) ;
#290 = ORIENTED_EDGE ( 'NONE', *, *, #64, .F. ) ;
#291 = ADVANCED_FACE ( 'NONE', ( #188 ), #20, .F. ) ;
#292 = CARTESIAN_POINT ( 'NONE',  ( 1.222018468595097779E-14, -0.7500000000000006661, 3.500000000000003109 ) ) ;
#293 = CLOSED_SHELL ( 'NONE', ( #178, #153, #8, #94, #281, #317, #253, #247, #163, #291 ) ) ;
#294 = CIRCLE ( 'NONE', #109, 0.7500000000000002220 ) ;
#295 = DATE_AND_TIME ( #269, #6 ) ;
#296 = EDGE_CURVE ( 'NONE', #116, #116, #165, .T. ) ;
#297 = APPROVAL_DATE_TIME ( #301, #85 ) ;
#298 = ORIENTED_EDGE ( 'NONE', *, *, #33, .T. ) ;
#299 = DIRECTION ( 'NONE',  ( -3.491481338843133355E-15, 1.224646799147353207E-16, -1.000000000000000000 ) ) ;
#300 = DIRECTION ( 'NONE',  ( 0.0000000000000000000, -1.000000000000000000, 0.0000000000000000000 ) ) ;
#301 = DATE_AND_TIME ( #125, #173 ) ;
#302 = DIRECTION ( 'NONE',  ( -4.275831445896958607E-31, -1.000000000000000000, -1.224646799147353207E-16 ) ) ;
#303 = CIRCLE ( 'NONE', #239, 1.999999999999997113 ) ;
#304 = FACE_OUTER_BOUND ( 'NONE', #118, .T. ) ;
#305 = AXIS2_PLACEMENT_3D ( 'NONE', #108, #212, #113 ) ;
#306 = AXIS2_PLACEMENT_3D ( 'NONE', #177, #255, #302 ) ;
#307 = FACE_OUTER_BOUND ( 'NONE', #72, .T. ) ;
#308 = DIRECTION ( 'NONE',  ( -3.491481338843133355E-15, 1.224646799147353207E-16, -1.000000000000000000 ) ) ;
#309 = DIRECTION ( 'NONE',  ( 3.491481338843133355E-15, -1.212436186278512867E-16, 1.000000000000000000 ) ) ;
#310 =( GEOMETRIC_REPRESENTATION_CONTEXT ( 3 ) GLOBAL_UNCERTAINTY_ASSIGNED_CONTEXT ( ( #213 ) ) GLOBAL_UNIT_ASSIGNED_CONTEXT ( ( #251, #249, #194 ) ) REPRESENTATION_CONTEXT ( 'NONE', 'WORKASPACE' ) );
#311 = DIRECTION ( 'NONE',  ( 3.491481338843133355E-15, -1.212436186278512867E-16, 1.000000000000000000 ) ) ;
#312 = PRODUCT_DEFINITION ( 'UNKNOWN', '', #217, #241 ) ;
#313 = DIRECTION ( 'NONE',  ( -3.491481338843133355E-15, 1.212436186278512867E-16, -1.000000000000000000 ) ) ;
#314 = FACE_OUTER_BOUND ( 'NONE', #3, .T. ) ;
#315 = AXIS2_PLACEMENT_3D ( 'NONE', #181, #311, #66 ) ;
#316 = PERSON_AND_ORGANIZATION ( #235, #47 ) ;
#317 = ADVANCED_FACE ( 'NONE', ( #216, #107 ), #262, .F. ) ;
#318 = ORIENTED_EDGE ( 'NONE', *, *, #210, .T. ) ;
#319 = SECURITY_CLASSIFICATION_LEVEL ( 'unclassified' ) ;
#320 = EDGE_LOOP ( 'NONE', ( #74 ) ) ;
#321 = PERSON_AND_ORGANIZATION_ROLE ( 'design_supplier' ) ;
#322 = AXIS2_PLACEMENT_3D ( 'NONE', #127, #203, #228 ) ;
#323 = CC_DESIGN_PERSON_AND_ORGANIZATION_ASSIGNMENT ( #316, #321, ( #217 ) ) ;
ENDSEC;
END-ISO-10303-21;
