ISO-10303-21;
HEADER;
FILE_DESCRIPTION (( 'STEP AP203' ),
    '1' );
FILE_NAME ('381956.step',
    '2022-01-11T10:23:04',
    ( '' ),
    ( '' ),
    'SwSTEP 2.0',
    'SolidWorks 2019',
    '' );
FILE_SCHEMA (( 'CONFIG_CONTROL_DESIGN' ));
ENDSEC;

DATA;
#1 = ORGANIZATION ( 'UNSPECIFIED', 'UNSPECIFIED', '' ) ;
#2 = CARTESIAN_POINT ( 'NONE',  ( 3.212162831735682687E-14, -1.126675055215564822E-15, 9.199999999999999289 ) ) ;
#3 = ADVANCED_BREP_SHAPE_REPRESENTATION ( '381956', ( #123, #227, #56 ), #340 ) ;
#4 = PERSON_AND_ORGANIZATION ( #144, #1 ) ;
#5 = CALENDAR_DATE ( 2022, 11, 1 ) ;
#6 = AXIS2_PLACEMENT_3D ( 'NONE', #208, #61, #7 ) ;
#7 = DIRECTION ( 'NONE',  ( 4.275831445896958607E-31, 1.000000000000000000, 1.224646799147353207E-16 ) ) ;
#8 = FACE_OUTER_BOUND ( 'NONE', #329, .T. ) ;
#9 = APPROVAL ( #138, 'UNSPECIFIED' ) ;
#10 = DIRECTION ( 'NONE',  ( -3.491481338843133355E-15, 1.224646799147353207E-16, -1.000000000000000000 ) ) ;
#11 = DIRECTION ( 'NONE',  ( -3.491481338843133355E-15, 1.224646799147353207E-16, -1.000000000000000000 ) ) ;
#12 = FACE_OUTER_BOUND ( 'NONE', #85, .T. ) ;
#13 = DIRECTION ( 'NONE',  ( 0.0000000000000000000, 1.000000000000000000, 0.0000000000000000000 ) ) ;
#14 = FACE_OUTER_BOUND ( 'NONE', #91, .T. ) ;
#15 = AXIS2_PLACEMENT_3D ( 'NONE', #289, #116, #245 ) ;
#16 = ADVANCED_FACE ( 'NONE', ( #275, #163 ), #156, .T. ) ;
#17 = FACE_OUTER_BOUND ( 'NONE', #206, .T. ) ;
#18 = DIRECTION ( 'NONE',  ( 4.275831445896958607E-31, 1.000000000000000000, 1.224646799147353207E-16 ) ) ;
#19 = PRODUCT ( '381956', '381956', '', ( #53 ) ) ;
#20 = CARTESIAN_POINT ( 'NONE',  ( 7.332110811570581624E-15, 0.6999999999999996225, 2.100000000000000089 ) ) ;
#21 = CC_DESIGN_APPROVAL ( #190, ( #24 ) ) ;
#22 = VERTEX_POINT ( 'NONE', #259 ) ;
#23 = ORIENTED_EDGE ( 'NONE', *, *, #338, .T. ) ;
#24 = PRODUCT_DEFINITION ( 'UNKNOWN', '', #150, #234 ) ;
#25 = EDGE_LOOP ( 'NONE', ( #180 ) ) ;
#26 = CARTESIAN_POINT ( 'NONE',  ( 1.326762908760390833E-14, 4.488627628105023737E-15, 3.800000000000000266 ) ) ;
#27 = PERSON_AND_ORGANIZATION ( #144, #1 ) ;
#28 = CC_DESIGN_PERSON_AND_ORGANIZATION_ASSIGNMENT ( #119, #266, ( #24 ) ) ;
#29 = COORDINATED_UNIVERSAL_TIME_OFFSET ( 1, 0, .AHEAD. ) ;
#30 = CALENDAR_DATE ( 2022, 11, 1 ) ;
#31 = EDGE_LOOP ( 'NONE', ( #146 ) ) ;
#32 = APPROVAL_DATE_TIME ( #237, #190 ) ;
#33 = TOROIDAL_SURFACE ( 'NONE', #109, 2.700000000000000178, 2.000000000000000000 ) ;
#34 = FACE_OUTER_BOUND ( 'NONE', #114, .T. ) ;
#35 = ADVANCED_FACE ( 'NONE', ( #120, #36 ), #188, .T. ) ;
#36 = FACE_OUTER_BOUND ( 'NONE', #60, .T. ) ;
#37 = PERSON_AND_ORGANIZATION_ROLE ( 'classification_officer' ) ;
#38 = DIRECTION ( 'NONE',  ( 3.491481338843133355E-15, -1.224646799147353207E-16, 1.000000000000000000 ) ) ;
#39 = CIRCLE ( 'NONE', #233, 0.7437047985323859134 ) ;
#40 = ORIENTED_EDGE ( 'NONE', *, *, #246, .T. ) ;
#41 = EDGE_CURVE ( 'NONE', #181, #181, #125, .T. ) ;
#42 = DIRECTION ( 'NONE',  ( 0.0000000000000000000, 1.000000000000000000, 0.0000000000000000000 ) ) ;
#43 = CARTESIAN_POINT ( 'NONE',  ( 1.262457986153303891E-14, -4.428106530602080157E-16, 3.615823381635505207 ) ) ;
#44 = ADVANCED_FACE ( 'NONE', ( #268, #248 ), #112, .F. ) ;
#45 = DIRECTION ( 'NONE',  ( -3.491481338843133355E-15, 1.224646799147353207E-16, -1.000000000000000000 ) ) ;
#46 = CLOSED_SHELL ( 'NONE', ( #94, #110, #173 ) ) ;
#47 = FACE_OUTER_BOUND ( 'NONE', #165, .T. ) ;
#48 = CARTESIAN_POINT ( 'NONE',  ( 7.332110811570581624E-15, -2.571758278209441957E-16, 2.100000000000000089 ) ) ;
#49 =( NAMED_UNIT ( * ) PLANE_ANGLE_UNIT ( ) SI_UNIT ( $, .RADIAN. ) );
#50 = CC_DESIGN_PERSON_AND_ORGANIZATION_ASSIGNMENT ( #330, #90, ( #150 ) ) ;
#51 = CARTESIAN_POINT ( 'NONE',  ( 1.326762908760390833E-14, 0.7828527472719529756, 3.800000000000000266 ) ) ;
#52 = ORIENTED_EDGE ( 'NONE', *, *, #148, .F. ) ;
#53 = MECHANICAL_CONTEXT ( 'NONE', #79, 'mechanical' ) ;
#54 = CARTESIAN_POINT ( 'NONE',  ( 2.657279295666123407E-14, 1.959999999999998632, 7.610750388677677059 ) ) ;
#55 = EDGE_LOOP ( 'NONE', ( #295 ) ) ;
#56 = AXIS2_PLACEMENT_3D ( 'NONE', #107, #264, #83 ) ;
#57 = CARTESIAN_POINT ( 'NONE',  ( 1.326762908760390833E-14, 1.149999999999999467, 3.800000000000000266 ) ) ;
#58 = EDGE_LOOP ( 'NONE', ( #321 ) ) ;
#59 = DATE_AND_TIME ( #187, #296 ) ;
#60 = EDGE_LOOP ( 'NONE', ( #203 ) ) ;
#61 = DIRECTION ( 'NONE',  ( -3.491481338843133355E-15, 1.224646799147353207E-16, -1.000000000000000000 ) ) ;
#62 = AXIS2_PLACEMENT_3D ( 'NONE', #26, #134, #130 ) ;
#63 = AXIS2_PLACEMENT_3D ( 'NONE', #256, #102, #301 ) ;
#64 = LOCAL_TIME ( 11, 23, 4.000000000000000000, #29 ) ;
#65 = CYLINDRICAL_SURFACE ( 'NONE', #287, 1.999999999999996669 ) ;
#66 = APPROVAL_ROLE ( '' ) ;
#67 = CARTESIAN_POINT ( 'NONE',  ( 7.332110811570581624E-15, -2.571758278209441957E-16, 2.100000000000000089 ) ) ;
#68 = ADVANCED_FACE ( 'NONE', ( #214, #34 ), #65, .T. ) ;
#69 = PERSON_AND_ORGANIZATION ( #144, #1 ) ;
#70 = EDGE_LOOP ( 'NONE', ( #324 ) ) ;
#71 = AXIS2_PLACEMENT_3D ( 'NONE', #198, #175, #149 ) ;
#72 = DIRECTION ( 'NONE',  ( -3.491481338843133355E-15, 1.224646799147353207E-16, -1.000000000000000000 ) ) ;
#73 = APPLICATION_CONTEXT ( 'configuration controlled 3d designs of mechanical parts and assemblies' ) ;
#74 = CARTESIAN_POINT ( 'NONE',  ( 1.326762908760390423E-13, 1.199807826129476644E-32, 38.00000000000000000 ) ) ;
#75 = PLANE ( 'NONE',  #98 ) ;
#76 = DIRECTION ( 'NONE',  ( 0.0000000000000000000, -1.000000000000000000, 0.0000000000000000000 ) ) ;
#77 = CIRCLE ( 'NONE', #145, 1.599999999999996314 ) ;
#78 = CARTESIAN_POINT ( 'NONE',  ( 2.657279295666123407E-14, -9.320481102603591775E-16, 7.610750388677677059 ) ) ;
#79 = APPLICATION_CONTEXT ( 'configuration controlled 3d designs of mechanical parts and assemblies' ) ;
#80 = FACE_OUTER_BOUND ( 'NONE', #55, .T. ) ;
#81 = VERTEX_POINT ( 'NONE', #315 ) ;
#82 = EDGE_LOOP ( 'NONE', ( #131 ) ) ;
#83 = DIRECTION ( 'NONE',  ( 1.000000000000000000, 0.0000000000000000000, 0.0000000000000000000 ) ) ;
#84 = EDGE_LOOP ( 'NONE', ( #106 ) ) ;
#85 = EDGE_LOOP ( 'NONE', ( #310 ) ) ;
#86 = DIRECTION ( 'NONE',  ( 4.275831445896958607E-31, 1.000000000000000000, 1.224646799147353207E-16 ) ) ;
#87 = CALENDAR_DATE ( 2022, 11, 1 ) ;
#88 = EDGE_CURVE ( 'NONE', #317, #317, #77, .T. ) ;
#89 = DIRECTION ( 'NONE',  ( 0.0000000000000000000, 1.000000000000000000, 0.0000000000000000000 ) ) ;
#90 = PERSON_AND_ORGANIZATION_ROLE ( 'design_supplier' ) ;
#91 = EDGE_LOOP ( 'NONE', ( #236 ) ) ;
#92 = LOCAL_TIME ( 11, 23, 4.000000000000000000, #327 ) ;
#93 = EDGE_LOOP ( 'NONE', ( #23 ) ) ;
#94 = ADVANCED_FACE ( 'NONE', ( #12 ), #331, .F. ) ;
#95 = COORDINATED_UNIVERSAL_TIME_OFFSET ( 1, 0, .AHEAD. ) ;
#96 = DIRECTION ( 'NONE',  ( 3.491481338843133355E-15, -1.224646799147353207E-16, 1.000000000000000000 ) ) ;
#97 = DIRECTION ( 'NONE',  ( 3.491481338843133355E-15, -1.224646799147353207E-16, 1.000000000000000000 ) ) ;
#98 = AXIS2_PLACEMENT_3D ( 'NONE', #74, #174, #276 ) ;
#99 = FACE_OUTER_BOUND ( 'NONE', #108, .T. ) ;
#100 = DIRECTION ( 'NONE',  ( 4.332332072286872625E-31, 1.000000000000000000, 1.224646799147353207E-16 ) ) ;
#101 = EDGE_CURVE ( 'NONE', #22, #22, #220, .T. ) ;
#102 = DIRECTION ( 'NONE',  ( 3.491481338843133355E-15, -1.224646799147353207E-16, 1.000000000000000000 ) ) ;
#103 = CC_DESIGN_APPROVAL ( #201, ( #150 ) ) ;
#104 = CIRCLE ( 'NONE', #341, 1.959999999999999520 ) ;
#105 = VERTEX_POINT ( 'NONE', #54 ) ;
#106 = ORIENTED_EDGE ( 'NONE', *, *, #88, .T. ) ;
#107 = CARTESIAN_POINT ( 'NONE',  ( 0.0000000000000000000, 0.0000000000000000000, 0.0000000000000000000 ) ) ;
#108 = EDGE_LOOP ( 'NONE', ( #142 ) ) ;
#109 = AXIS2_PLACEMENT_3D ( 'NONE', #128, #122, #100 ) ;
#110 = ADVANCED_FACE ( 'NONE', ( #8, #169 ), #300, .T. ) ;
#111 = DATE_AND_TIME ( #5, #251 ) ;
#112 = PLANE ( 'NONE',  #15 ) ;
#113 = PERSON_AND_ORGANIZATION ( #144, #1 ) ;
#114 = EDGE_LOOP ( 'NONE', ( #212 ) ) ;
#115 = APPROVAL_DATE_TIME ( #192, #201 ) ;
#116 = DIRECTION ( 'NONE',  ( 3.491481338843133355E-15, -1.224646799147353207E-16, 1.000000000000000000 ) ) ;
#117 = ADVANCED_FACE ( 'NONE', ( #99, #282 ), #320, .T. ) ;
#118 = AXIS2_PLACEMENT_3D ( 'NONE', #186, #211, #274 ) ;
#119 = PERSON_AND_ORGANIZATION ( #144, #1 ) ;
#120 = FACE_OUTER_BOUND ( 'NONE', #161, .T. ) ;
#121 = CYLINDRICAL_SURFACE ( 'NONE', #160, 0.6999999999999999556 ) ;
#122 = DIRECTION ( 'NONE',  ( -3.491481338843133355E-15, 1.224646799147353207E-16, -1.000000000000000000 ) ) ;
#123 = MANIFOLD_SOLID_BREP ( 'Corps-Déplacer/Copier1[1]', #126 ) ;
#124 = APPROVAL_PERSON_ORGANIZATION ( #113, #201, #66 ) ;
#125 = CIRCLE ( 'NONE', #209, 1.999999999999997113 ) ;
#126 = CLOSED_SHELL ( 'NONE', ( #226, #285, #240, #16, #325, #158, #35, #44, #68, #117, #263 ) ) ;
#127 = FACE_OUTER_BOUND ( 'NONE', #189, .T. ) ;
#128 = CARTESIAN_POINT ( 'NONE',  ( 1.117274028429802674E-14, -4.336808689942017736E-16, 3.199999999999999734 ) ) ;
#129 = DIRECTION ( 'NONE',  ( -3.491481338843133355E-15, 1.224646799147353207E-16, -1.000000000000000000 ) ) ;
#130 = DIRECTION ( 'NONE',  ( -4.275831445896958607E-31, -1.000000000000000000, -1.224646799147353207E-16 ) ) ;
#131 = ORIENTED_EDGE ( 'NONE', *, *, #338, .F. ) ;
#132 = CARTESIAN_POINT ( 'NONE',  ( 3.212162831735682687E-14, 1.959999999999998632, 9.199999999999999289 ) ) ;
#133 = ORIENTED_EDGE ( 'NONE', *, *, #305, .F. ) ;
#134 = DIRECTION ( 'NONE',  ( 3.491481338843133355E-15, -1.224646799147353207E-16, 1.000000000000000000 ) ) ;
#135 = CIRCLE ( 'NONE', #171, 0.6999999999999998446 ) ;
#136 = PERSON_AND_ORGANIZATION_ROLE ( 'design_owner' ) ;
#137 = ORIENTED_EDGE ( 'NONE', *, *, #319, .F. ) ;
#138 = APPROVAL_STATUS ( 'not_yet_approved' ) ;
#139 = EDGE_LOOP ( 'NONE', ( #40 ) ) ;
#140 = CIRCLE ( 'NONE', #71, 1.959999999999999964 ) ;
#141 = PERSON_AND_ORGANIZATION_ROLE ( 'creator' ) ;
#142 = ORIENTED_EDGE ( 'NONE', *, *, #41, .F. ) ;
#143 = CARTESIAN_POINT ( 'NONE',  ( 0.0000000000000000000, 0.0000000000000000000, 0.0000000000000000000 ) ) ;
#144 = PERSON ( 'UNSPECIFIED', 'UNSPECIFIED', 'UNSPECIFIED', ('UNSPECIFIED'), ('UNSPECIFIED'), ('UNSPECIFIED') ) ;
#145 = AXIS2_PLACEMENT_3D ( 'NONE', #244, #10, #242 ) ;
#146 = ORIENTED_EDGE ( 'NONE', *, *, #305, .T. ) ;
#147 = DIRECTION ( 'NONE',  ( -3.491481338843133355E-15, 1.224646799147353207E-16, -1.000000000000000000 ) ) ;
#148 = EDGE_CURVE ( 'NONE', #309, #309, #140, .T. ) ;
#149 = DIRECTION ( 'NONE',  ( 0.0000000000000000000, 1.000000000000000000, 0.0000000000000000000 ) ) ;
#150 = PRODUCT_DEFINITION_FORMATION_WITH_SPECIFIED_SOURCE ( 'ANY', '', #19, .NOT_KNOWN. ) ;
#151 = CIRCLE ( 'NONE', #176, 1.149999999999999911 ) ;
#152 = PLANE ( 'NONE',  #63 ) ;
#153 = DIRECTION ( 'NONE',  ( -3.491481338843133355E-15, 1.224646799147353207E-16, -1.000000000000000000 ) ) ;
#154 = DIRECTION ( 'NONE',  ( 0.0000000000000000000, 1.000000000000000000, 0.0000000000000000000 ) ) ;
#155 = DIRECTION ( 'NONE',  ( 0.0000000000000000000, 1.000000000000000000, 0.0000000000000000000 ) ) ;
#156 = CONICAL_SURFACE ( 'NONE', #312, 0.7828527472719534197, 0.2094395102393118158 ) ;
#157 = VERTEX_POINT ( 'NONE', #20 ) ;
#158 = ADVANCED_FACE ( 'NONE', ( #254, #277 ), #247, .T. ) ;
#159 = UNCERTAINTY_MEASURE_WITH_UNIT (LENGTH_MEASURE( 1.000000000000000082E-05 ), #283, 'distance_accuracy_value', 'NONE');
#160 = AXIS2_PLACEMENT_3D ( 'NONE', #177, #129, #223 ) ;
#161 = EDGE_LOOP ( 'NONE', ( #170 ) ) ;
#162 = VERTEX_POINT ( 'NONE', #57 ) ;
#163 = FACE_OUTER_BOUND ( 'NONE', #25, .T. ) ;
#164 = APPROVAL_STATUS ( 'not_yet_approved' ) ;
#165 = EDGE_LOOP ( 'NONE', ( #133 ) ) ;
#166 = CIRCLE ( 'NONE', #269, 0.7000000000000000666 ) ;
#167 = CIRCLE ( 'NONE', #224, 1.999999999999996669 ) ;
#168 = CARTESIAN_POINT ( 'NONE',  ( 1.326762908760390833E-14, -4.653657836759942730E-16, 3.800000000000000266 ) ) ;
#169 = FACE_OUTER_BOUND ( 'NONE', #70, .T. ) ;
#170 = ORIENTED_EDGE ( 'NONE', *, *, #246, .F. ) ;
#171 = AXIS2_PLACEMENT_3D ( 'NONE', #48, #147, #249 ) ;
#172 = CARTESIAN_POINT ( 'NONE',  ( 1.326762908760390833E-14, -4.653657836759942730E-16, 3.800000000000000266 ) ) ;
#173 = ADVANCED_FACE ( 'NONE', ( #14 ), #280, .T. ) ;
#174 = DIRECTION ( 'NONE',  ( -3.491481338843133355E-15, 1.224646799147353207E-16, -1.000000000000000000 ) ) ;
#175 = DIRECTION ( 'NONE',  ( -3.491481338843133355E-15, 1.224646799147353207E-16, -1.000000000000000000 ) ) ;
#176 = AXIS2_PLACEMENT_3D ( 'NONE', #172, #306, #196 ) ;
#177 = CARTESIAN_POINT ( 'NONE',  ( 0.0000000000000000000, 0.0000000000000000000, 0.0000000000000000000 ) ) ;
#178 = FACE_OUTER_BOUND ( 'NONE', #288, .T. ) ;
#179 = PLANE ( 'NONE',  #62 ) ;
#180 = ORIENTED_EDGE ( 'NONE', *, *, #253, .T. ) ;
#181 = VERTEX_POINT ( 'NONE', #225 ) ;
#182 = ORIENTED_EDGE ( 'NONE', *, *, #319, .T. ) ;
#183 = APPROVAL_ROLE ( '' ) ;
#184 = ORIENTED_EDGE ( 'NONE', *, *, #273, .F. ) ;
#185 = PRODUCT_DEFINITION_SHAPE ( 'NONE', 'NONE',  #24 ) ;
#186 = CARTESIAN_POINT ( 'NONE',  ( 0.0000000000000000000, 0.0000000000000000000, 0.0000000000000000000 ) ) ;
#187 = CALENDAR_DATE ( 2022, 11, 1 ) ;
#188 = CYLINDRICAL_SURFACE ( 'NONE', #6, 1.959999999999999964 ) ;
#189 = EDGE_LOOP ( 'NONE', ( #182 ) ) ;
#190 = APPROVAL ( #205, 'UNSPECIFIED' ) ;
#191 = CARTESIAN_POINT ( 'NONE',  ( -1.389681836178410948E-31, 4.874347726208969079E-33, -3.980206970371113890E-17 ) ) ;
#192 = DATE_AND_TIME ( #87, #64 ) ;
#193 = DIRECTION ( 'NONE',  ( -3.491481338843133355E-15, 1.224646799147353207E-16, -1.000000000000000000 ) ) ;
#194 = CC_DESIGN_DATE_AND_TIME_ASSIGNMENT ( #111, #290, ( #326 ) ) ;
#195 = FACE_OUTER_BOUND ( 'NONE', #31, .T. ) ;
#196 = DIRECTION ( 'NONE',  ( 0.0000000000000000000, 1.000000000000000000, 0.0000000000000000000 ) ) ;
#197 = DIRECTION ( 'NONE',  ( 0.0000000000000000000, 1.000000000000000000, 0.0000000000000000000 ) ) ;
#198 = CARTESIAN_POINT ( 'NONE',  ( 3.212162831735682687E-14, -1.126675055215564822E-15, 9.199999999999999289 ) ) ;
#199 = APPROVAL_PERSON_ORGANIZATION ( #4, #190, #183 ) ;
#200 = CARTESIAN_POINT ( 'NONE',  ( 2.657279295666123407E-14, -9.320481102603591775E-16, 7.610750388677677059 ) ) ;
#201 = APPROVAL ( #164, 'UNSPECIFIED' ) ;
#202 = VERTEX_POINT ( 'NONE', #51 ) ;
#203 = ORIENTED_EDGE ( 'NONE', *, *, #148, .T. ) ;
#204 = CC_DESIGN_DATE_AND_TIME_ASSIGNMENT ( #59, #243, ( #24 ) ) ;
#205 = APPROVAL_STATUS ( 'not_yet_approved' ) ;
#206 = EDGE_LOOP ( 'NONE', ( #260 ) ) ;
#207 = APPROVAL_ROLE ( '' ) ;
#208 = CARTESIAN_POINT ( 'NONE',  ( 0.0000000000000000000, 0.0000000000000000000, 0.0000000000000000000 ) ) ;
#209 = AXIS2_PLACEMENT_3D ( 'NONE', #291, #11, #270 ) ;
#210 = COORDINATED_UNIVERSAL_TIME_OFFSET ( 1, 0, .AHEAD. ) ;
#211 = DIRECTION ( 'NONE',  ( -3.491481338843133355E-15, 1.224646799147353207E-16, -1.000000000000000000 ) ) ;
#212 = ORIENTED_EDGE ( 'NONE', *, *, #41, .T. ) ;
#213 = APPROVAL_DATE_TIME ( #293, #9 ) ;
#214 = FACE_OUTER_BOUND ( 'NONE', #82, .T. ) ;
#215 = AXIS2_PLACEMENT_3D ( 'NONE', #222, #302, #336 ) ;
#216 = PERSON_AND_ORGANIZATION ( #144, #1 ) ;
#217 = DIRECTION ( 'NONE',  ( -3.491481338843133355E-15, 1.224646799147353207E-16, -1.000000000000000000 ) ) ;
#218 = CARTESIAN_POINT ( 'NONE',  ( 7.332110811570581624E-15, 5.249159239316498206E-33, 2.100000000000000089 ) ) ;
#219 = FACE_BOUND ( 'NONE', #308, .T. ) ;
#220 = CIRCLE ( 'NONE', #278, 0.6999999999999998446 ) ;
#221 = DIRECTION ( 'NONE',  ( -4.275831445896958607E-31, -1.000000000000000000, -1.224646799147353207E-16 ) ) ;
#222 = CARTESIAN_POINT ( 'NONE',  ( 1.326762908760390833E-14, -4.653657836759942730E-16, 3.800000000000000266 ) ) ;
#223 = DIRECTION ( 'NONE',  ( 4.275831445896958607E-31, 1.000000000000000000, 1.224646799147353207E-16 ) ) ;
#224 = AXIS2_PLACEMENT_3D ( 'NONE', #2, #307, #155 ) ;
#225 = CARTESIAN_POINT ( 'NONE',  ( 1.312796983405018142E-13, 1.999999999999992228, 37.59999999999999432 ) ) ;
#226 = ADVANCED_FACE ( 'NONE', ( #17 ), #152, .F. ) ;
#227 = MANIFOLD_SOLID_BREP ( 'Corps-Déplacer/Copier1[2]', #46 ) ;
#228 = VERTEX_POINT ( 'NONE', #342 ) ;
#229 = EDGE_LOOP ( 'NONE', ( #137 ) ) ;
#230 = CARTESIAN_POINT ( 'NONE',  ( 1.326762908760390423E-13, 1.599999999999991873, 38.00000000000000000 ) ) ;
#231 = CARTESIAN_POINT ( 'NONE',  ( 2.137183397710479182E-32, 0.6999999999999996225, 6.121136532892404794E-18 ) ) ;
#232 = EDGE_CURVE ( 'NONE', #162, #162, #151, .T. ) ;
#233 = AXIS2_PLACEMENT_3D ( 'NONE', #43, #250, #13 ) ;
#234 = DESIGN_CONTEXT ( 'detailed design', #73, 'design' ) ;
#235 = APPLICATION_PROTOCOL_DEFINITION ( 'international standard', 'config_control_design', 1994, #73 ) ;
#236 = ORIENTED_EDGE ( 'NONE', *, *, #101, .F. ) ;
#237 = DATE_AND_TIME ( #30, #292 ) ;
#238 = ORIENTED_EDGE ( 'NONE', *, *, #232, .F. ) ;
#239 = CIRCLE ( 'NONE', #215, 0.7828527472719534197 ) ;
#240 = ADVANCED_FACE ( 'NONE', ( #127, #47 ), #33, .F. ) ;
#241 = SECURITY_CLASSIFICATION_LEVEL ( 'unclassified' ) ;
#242 = DIRECTION ( 'NONE',  ( 0.0000000000000000000, 1.000000000000000000, 0.0000000000000000000 ) ) ;
#243 = DATE_TIME_ROLE ( 'creation_date' ) ;
#244 = CARTESIAN_POINT ( 'NONE',  ( 1.326762908760390423E-13, -4.653657836759941941E-15, 38.00000000000000000 ) ) ;
#245 = DIRECTION ( 'NONE',  ( -4.275831445896958607E-31, -1.000000000000000000, -1.224646799147353207E-16 ) ) ;
#246 = EDGE_CURVE ( 'NONE', #105, #105, #104, .T. ) ;
#247 = CONICAL_SURFACE ( 'NONE', #258, 1.959999999999999520, 0.2094395102393125652 ) ;
#248 = FACE_OUTER_BOUND ( 'NONE', #93, .T. ) ;
#249 = DIRECTION ( 'NONE',  ( 0.0000000000000000000, 1.000000000000000000, 0.0000000000000000000 ) ) ;
#250 = DIRECTION ( 'NONE',  ( -3.491481338843133355E-15, 1.224646799147353207E-16, -1.000000000000000000 ) ) ;
#251 = LOCAL_TIME ( 11, 23, 4.000000000000000000, #210 ) ;
#252 = CC_DESIGN_APPROVAL ( #9, ( #326 ) ) ;
#253 = EDGE_CURVE ( 'NONE', #202, #202, #239, .T. ) ;
#254 = FACE_BOUND ( 'NONE', #323, .T. ) ;
#255 = CARTESIAN_POINT ( 'NONE',  ( -2.779363672356821897E-31, 9.748695452417938158E-33, -7.960413940742227780E-17 ) ) ;
#256 = CARTESIAN_POINT ( 'NONE',  ( 7.332110811570581624E-15, 5.249159239316498206E-33, 2.100000000000000089 ) ) ;
#257 = CC_DESIGN_PERSON_AND_ORGANIZATION_ASSIGNMENT ( #299, #37, ( #326 ) ) ;
#258 = AXIS2_PLACEMENT_3D ( 'NONE', #200, #334, #76 ) ;
#259 = CARTESIAN_POINT ( 'NONE',  ( 7.332110811570581624E-15, 0.6999999999999996225, 2.100000000000000089 ) ) ;
#260 = ORIENTED_EDGE ( 'NONE', *, *, #314, .T. ) ;
#261 =( NAMED_UNIT ( * ) SI_UNIT ( $, .STERADIAN. ) SOLID_ANGLE_UNIT ( ) );
#262 = EDGE_LOOP ( 'NONE', ( #52 ) ) ;
#263 = ADVANCED_FACE ( 'NONE', ( #178 ), #75, .F. ) ;
#264 = DIRECTION ( 'NONE',  ( 0.0000000000000000000, 0.0000000000000000000, 1.000000000000000000 ) ) ;
#265 = CIRCLE ( 'NONE', #335, 0.6999999999999996225 ) ;
#266 = PERSON_AND_ORGANIZATION_ROLE ( 'creator' ) ;
#267 = CALENDAR_DATE ( 2022, 11, 1 ) ;
#268 = FACE_BOUND ( 'NONE', #262, .T. ) ;
#269 = AXIS2_PLACEMENT_3D ( 'NONE', #339, #72, #42 ) ;
#270 = DIRECTION ( 'NONE',  ( 0.0000000000000000000, 1.000000000000000000, 0.0000000000000000000 ) ) ;
#271 = COORDINATED_UNIVERSAL_TIME_OFFSET ( 1, 0, .AHEAD. ) ;
#272 = DIRECTION ( 'NONE',  ( 0.0000000000000000000, -1.000000000000000000, 0.0000000000000000000 ) ) ;
#273 = EDGE_CURVE ( 'NONE', #286, #286, #265, .T. ) ;
#274 = DIRECTION ( 'NONE',  ( 4.275831445896958607E-31, 1.000000000000000000, 1.224646799147353207E-16 ) ) ;
#275 = FACE_BOUND ( 'NONE', #229, .T. ) ;
#276 = DIRECTION ( 'NONE',  ( 4.275831445896958607E-31, 1.000000000000000000, 1.224646799147353207E-16 ) ) ;
#277 = FACE_OUTER_BOUND ( 'NONE', #139, .T. ) ;
#278 = AXIS2_PLACEMENT_3D ( 'NONE', #67, #193, #89 ) ;
#279 = CC_DESIGN_SECURITY_CLASSIFICATION ( #326, ( #150 ) ) ;
#280 = PLANE ( 'NONE',  #304 ) ;
#281 = CC_DESIGN_PERSON_AND_ORGANIZATION_ASSIGNMENT ( #27, #136, ( #19 ) ) ;
#282 = FACE_BOUND ( 'NONE', #84, .T. ) ;
#283 =( LENGTH_UNIT ( ) NAMED_UNIT ( * ) SI_UNIT ( .MILLI., .METRE. ) );
#284 = VERTEX_POINT ( 'NONE', #313 ) ;
#285 = ADVANCED_FACE ( 'NONE', ( #303, #195 ), #121, .T. ) ;
#286 = VERTEX_POINT ( 'NONE', #231 ) ;
#287 = AXIS2_PLACEMENT_3D ( 'NONE', #143, #217, #86 ) ;
#288 = EDGE_LOOP ( 'NONE', ( #318 ) ) ;
#289 = CARTESIAN_POINT ( 'NONE',  ( 3.212162831735682687E-14, 2.969524369670473466E-32, 9.199999999999999289 ) ) ;
#290 = DATE_TIME_ROLE ( 'classification_date' ) ;
#291 = CARTESIAN_POINT ( 'NONE',  ( 1.312796983405018142E-13, -4.604671964794046935E-15, 37.59999999999999432 ) ) ;
#292 = LOCAL_TIME ( 11, 23, 4.000000000000000000, #271 ) ;
#293 = DATE_AND_TIME ( #267, #92 ) ;
#294 = AXIS2_PLACEMENT_3D ( 'NONE', #332, #45, #154 ) ;
#295 = ORIENTED_EDGE ( 'NONE', *, *, #232, .T. ) ;
#296 = LOCAL_TIME ( 11, 23, 4.000000000000000000, #95 ) ;
#297 = CC_DESIGN_PERSON_AND_ORGANIZATION_ASSIGNMENT ( #216, #141, ( #150 ) ) ;
#298 = DIRECTION ( 'NONE',  ( -4.275831445896958607E-31, -1.000000000000000000, -1.224646799147353207E-16 ) ) ;
#299 = PERSON_AND_ORGANIZATION ( #144, #1 ) ;
#300 = CYLINDRICAL_SURFACE ( 'NONE', #118, 0.6999999999999997335 ) ;
#301 = DIRECTION ( 'NONE',  ( -4.275831445896958607E-31, -1.000000000000000000, -1.224646799147353207E-16 ) ) ;
#302 = DIRECTION ( 'NONE',  ( -3.491481338843133355E-15, 1.224646799147353207E-16, -1.000000000000000000 ) ) ;
#303 = FACE_OUTER_BOUND ( 'NONE', #58, .T. ) ;
#304 = AXIS2_PLACEMENT_3D ( 'NONE', #218, #97, #221 ) ;
#305 = EDGE_CURVE ( 'NONE', #81, #81, #166, .T. ) ;
#306 = DIRECTION ( 'NONE',  ( -3.491481338843133355E-15, 1.224646799147353207E-16, -1.000000000000000000 ) ) ;
#307 = DIRECTION ( 'NONE',  ( -3.491481338843133355E-15, 1.224646799147353207E-16, -1.000000000000000000 ) ) ;
#308 = EDGE_LOOP ( 'NONE', ( #316 ) ) ;
#309 = VERTEX_POINT ( 'NONE', #132 ) ;
#310 = ORIENTED_EDGE ( 'NONE', *, *, #273, .T. ) ;
#311 = APPROVAL_PERSON_ORGANIZATION ( #69, #9, #207 ) ;
#312 = AXIS2_PLACEMENT_3D ( 'NONE', #168, #38, #272 ) ;
#313 = CARTESIAN_POINT ( 'NONE',  ( 3.212162831735682687E-14, 1.999999999999995337, 9.199999999999999289 ) ) ;
#314 = EDGE_CURVE ( 'NONE', #157, #157, #135, .T. ) ;
#315 = CARTESIAN_POINT ( 'NONE',  ( 1.117274028429802674E-14, 0.6999999999999996225, 3.200000000000000178 ) ) ;
#316 = ORIENTED_EDGE ( 'NONE', *, *, #253, .F. ) ;
#317 = VERTEX_POINT ( 'NONE', #230 ) ;
#318 = ORIENTED_EDGE ( 'NONE', *, *, #88, .F. ) ;
#319 = EDGE_CURVE ( 'NONE', #228, #228, #39, .T. ) ;
#320 = CONICAL_SURFACE ( 'NONE', #294, 1.599999999999996314, 0.7853981633974433940 ) ;
#321 = ORIENTED_EDGE ( 'NONE', *, *, #314, .F. ) ;
#322 = SHAPE_DEFINITION_REPRESENTATION ( #185, #3 ) ;
#323 = EDGE_LOOP ( 'NONE', ( #238 ) ) ;
#324 = ORIENTED_EDGE ( 'NONE', *, *, #101, .T. ) ;
#325 = ADVANCED_FACE ( 'NONE', ( #219, #80 ), #179, .F. ) ;
#326 = SECURITY_CLASSIFICATION ( '', '', #241 ) ;
#327 = COORDINATED_UNIVERSAL_TIME_OFFSET ( 1, 0, .AHEAD. ) ;
#328 = AXIS2_PLACEMENT_3D ( 'NONE', #191, #96, #298 ) ;
#329 = EDGE_LOOP ( 'NONE', ( #184 ) ) ;
#330 = PERSON_AND_ORGANIZATION ( #144, #1 ) ;
#331 = PLANE ( 'NONE',  #328 ) ;
#332 = CARTESIAN_POINT ( 'NONE',  ( 1.326762908760390423E-13, -4.653657836759941941E-15, 38.00000000000000000 ) ) ;
#333 = PRODUCT_RELATED_PRODUCT_CATEGORY ( 'detail', '', ( #19 ) ) ;
#334 = DIRECTION ( 'NONE',  ( 3.491481338843133355E-15, -1.224646799147353207E-16, 1.000000000000000000 ) ) ;
#335 = AXIS2_PLACEMENT_3D ( 'NONE', #255, #337, #18 ) ;
#336 = DIRECTION ( 'NONE',  ( 0.0000000000000000000, 1.000000000000000000, 0.0000000000000000000 ) ) ;
#337 = DIRECTION ( 'NONE',  ( -3.491481338843133355E-15, 1.224646799147353207E-16, -1.000000000000000000 ) ) ;
#338 = EDGE_CURVE ( 'NONE', #284, #284, #167, .T. ) ;
#339 = CARTESIAN_POINT ( 'NONE',  ( 1.117274028429802674E-14, -3.918869757271530460E-16, 3.200000000000000178 ) ) ;
#340 =( GEOMETRIC_REPRESENTATION_CONTEXT ( 3 ) GLOBAL_UNCERTAINTY_ASSIGNED_CONTEXT ( ( #159 ) ) GLOBAL_UNIT_ASSIGNED_CONTEXT ( ( #283, #49, #261 ) ) REPRESENTATION_CONTEXT ( 'NONE', 'WORKASPACE' ) );
#341 = AXIS2_PLACEMENT_3D ( 'NONE', #78, #153, #197 ) ;
#342 = CARTESIAN_POINT ( 'NONE',  ( 1.262457986153303891E-14, 0.7437047985323854693, 3.615823381635505207 ) ) ;
#343 = APPLICATION_PROTOCOL_DEFINITION ( 'international standard', 'config_control_design', 1994, #79 ) ;
ENDSEC;
END-ISO-10303-21;
