ISO-10303-21;
HEADER;
FILE_DESCRIPTION (( 'STEP AP203' ),
    '1' );
FILE_NAME ('381955.step',
    '2022-01-11T10:23:04',
    ( '' ),
    ( '' ),
    'SwSTEP 2.0',
    'SolidWorks 2019',
    '' );
FILE_SCHEMA (( 'CONFIG_CONTROL_DESIGN' ));
ENDSEC;

DATA;
#1 = LOCAL_TIME ( 11, 23, 4.000000000000000000, #2 ) ;
#2 = COORDINATED_UNIVERSAL_TIME_OFFSET ( 1, 0, .AHEAD. ) ;
#3 = ORIENTED_EDGE ( 'NONE', *, *, #315, .T. ) ;
#4 = DATE_TIME_ROLE ( 'creation_date' ) ;
#5 = EDGE_LOOP ( 'NONE', ( #278 ) ) ;
#6 = APPROVAL_DATE_TIME ( #101, #48 ) ;
#7 = CIRCLE ( 'NONE', #276, 1.959999999999999964 ) ;
#8 = ORIENTED_EDGE ( 'NONE', *, *, #200, .T. ) ;
#9 = ORIENTED_EDGE ( 'NONE', *, *, #280, .F. ) ;
#10 = ORIENTED_EDGE ( 'NONE', *, *, #91, .T. ) ;
#11 = LOCAL_TIME ( 11, 23, 4.000000000000000000, #231 ) ;
#12 = DIRECTION ( 'NONE',  ( 0.0000000000000000000, -1.000000000000000000, 0.0000000000000000000 ) ) ;
#13 = DIRECTION ( 'NONE',  ( -4.303073656626438695E-31, -1.000000000000000000, -1.232449278406344847E-16 ) ) ;
#14 = FACE_OUTER_BOUND ( 'NONE', #230, .T. ) ;
#15 = CARTESIAN_POINT ( 'NONE',  ( 1.047444401652940007E-14, -4.336808689942017736E-16, 3.000000000000000000 ) ) ;
#16 =( GEOMETRIC_REPRESENTATION_CONTEXT ( 3 ) GLOBAL_UNCERTAINTY_ASSIGNED_CONTEXT ( ( #72 ) ) GLOBAL_UNIT_ASSIGNED_CONTEXT ( ( #73, #67, #23 ) ) REPRESENTATION_CONTEXT ( 'NONE', 'WORKASPACE' ) );
#17 = CC_DESIGN_PERSON_AND_ORGANIZATION_ASSIGNMENT ( #189, #256, ( #143 ) ) ;
#18 = DIRECTION ( 'NONE',  ( 0.0000000000000000000, -1.000000000000000000, 0.0000000000000000000 ) ) ;
#19 = PLANE ( 'NONE',  #29 ) ;
#20 = CARTESIAN_POINT ( 'NONE',  ( 6.982962677686266711E-15, 0.6499999999999996891, 2.000000000000000000 ) ) ;
#21 = PERSON_AND_ORGANIZATION_ROLE ( 'design_owner' ) ;
#22 = CC_DESIGN_PERSON_AND_ORGANIZATION_ASSIGNMENT ( #298, #21, ( #123 ) ) ;
#23 =( NAMED_UNIT ( * ) SI_UNIT ( $, .STERADIAN. ) SOLID_ANGLE_UNIT ( ) );
#24 = DESIGN_CONTEXT ( 'detailed design', #167, 'design' ) ;
#25 = AXIS2_PLACEMENT_3D ( 'NONE', #272, #247, #175 ) ;
#26 = CARTESIAN_POINT ( 'NONE',  ( 1.361677722148822166E-14, -0.8639428900508254738, 3.900000000000000799 ) ) ;
#27 = ADVANCED_FACE ( 'NONE', ( #308, #257 ), #31, .F. ) ;
#28 = FACE_OUTER_BOUND ( 'NONE', #204, .T. ) ;
#29 = AXIS2_PLACEMENT_3D ( 'NONE', #88, #119, #194 ) ;
#30 = DIRECTION ( 'NONE',  ( 0.0000000000000000000, -1.000000000000000000, 0.0000000000000000000 ) ) ;
#31 = PLANE ( 'NONE',  #202 ) ;
#32 = EDGE_LOOP ( 'NONE', ( #304 ) ) ;
#33 = AXIS2_PLACEMENT_3D ( 'NONE', #66, #38, #18 ) ;
#34 = FACE_OUTER_BOUND ( 'NONE', #159, .T. ) ;
#35 = ADVANCED_FACE ( 'NONE', ( #77 ), #108, .F. ) ;
#36 = FACE_OUTER_BOUND ( 'NONE', #99, .T. ) ;
#37 = CARTESIAN_POINT ( 'NONE',  ( 6.982962677686266711E-15, 4.874219293651033120E-33, 2.000000000000000000 ) ) ;
#38 = DIRECTION ( 'NONE',  ( 3.491481338843133355E-15, -1.232449278406344847E-16, 1.000000000000000000 ) ) ;
#39 = AXIS2_PLACEMENT_3D ( 'NONE', #281, #236, #12 ) ;
#40 = LOCAL_TIME ( 11, 23, 4.000000000000000000, #124 ) ;
#41 = CYLINDRICAL_SURFACE ( 'NONE', #251, 1.999999999999996669 ) ;
#42 = CARTESIAN_POINT ( 'NONE',  ( 0.0000000000000000000, 0.0000000000000000000, 0.0000000000000000000 ) ) ;
#43 = EDGE_LOOP ( 'NONE', ( #3 ) ) ;
#44 = CIRCLE ( 'NONE', #267, 0.6499999999999999112 ) ;
#45 = VERTEX_POINT ( 'NONE', #90 ) ;
#46 = VERTEX_POINT ( 'NONE', #20 ) ;
#47 = ORIENTED_EDGE ( 'NONE', *, *, #105, .F. ) ;
#48 = APPROVAL ( #234, 'UNSPECIFIED' ) ;
#49 = EDGE_LOOP ( 'NONE', ( #232 ) ) ;
#50 = CARTESIAN_POINT ( 'NONE',  ( 2.692194109054554110E-14, -1.960000000000000409, 7.710750388677675815 ) ) ;
#51 = EDGE_LOOP ( 'NONE', ( #246 ) ) ;
#52 = COORDINATED_UNIVERSAL_TIME_OFFSET ( 1, 0, .AHEAD. ) ;
#53 = DIRECTION ( 'NONE',  ( -3.491481338843133355E-15, 1.224646799147353207E-16, -1.000000000000000000 ) ) ;
#54 = CIRCLE ( 'NONE', #39, 1.959999999999999520 ) ;
#55 = FACE_BOUND ( 'NONE', #254, .T. ) ;
#56 = DIRECTION ( 'NONE',  ( 3.491481338843133355E-15, -1.224646799147353207E-16, 1.000000000000000000 ) ) ;
#57 = SHAPE_DEFINITION_REPRESENTATION ( #93, #238 ) ;
#58 = DIRECTION ( 'NONE',  ( 0.0000000000000000000, 1.000000000000000000, 0.0000000000000000000 ) ) ;
#59 = EDGE_CURVE ( 'NONE', #320, #320, #54, .T. ) ;
#60 = CIRCLE ( 'NONE', #271, 0.6499999999999999112 ) ;
#61 = DIRECTION ( 'NONE',  ( 0.0000000000000000000, -1.000000000000000000, 0.0000000000000000000 ) ) ;
#62 = CARTESIAN_POINT ( 'NONE',  ( 1.312796983405018142E-13, -4.604359865623687397E-15, 37.59999999999999432 ) ) ;
#63 = CARTESIAN_POINT ( 'NONE',  ( 6.982962677686273021E-15, -2.168404344971008868E-16, 2.000000000000001776 ) ) ;
#64 = FACE_OUTER_BOUND ( 'NONE', #274, .T. ) ;
#65 = AXIS2_PLACEMENT_3D ( 'NONE', #264, #110, #222 ) ;
#66 = CARTESIAN_POINT ( 'NONE',  ( 1.312796983405018142E-13, -4.604359865623687397E-15, 37.59999999999999432 ) ) ;
#67 =( NAMED_UNIT ( * ) PLANE_ANGLE_UNIT ( ) SI_UNIT ( $, .RADIAN. ) );
#68 = ADVANCED_FACE ( 'NONE', ( #302, #185 ), #109, .T. ) ;
#69 = APPROVAL_PERSON_ORGANIZATION ( #135, #262, #186 ) ;
#70 = CARTESIAN_POINT ( 'NONE',  ( 1.312796983405018142E-13, -2.000000000000001776, 37.59999999999999432 ) ) ;
#71 = EDGE_LOOP ( 'NONE', ( #8 ) ) ;
#72 = UNCERTAINTY_MEASURE_WITH_UNIT (LENGTH_MEASURE( 1.000000000000000082E-05 ), #73, 'distance_accuracy_value', 'NONE');
#73 =( LENGTH_UNIT ( ) NAMED_UNIT ( * ) SI_UNIT ( .MILLI., .METRE. ) );
#74 = PERSON_AND_ORGANIZATION ( #279, #309 ) ;
#75 = PERSON_AND_ORGANIZATION_ROLE ( 'creator' ) ;
#76 = CYLINDRICAL_SURFACE ( 'NONE', #307, 0.6499999999999999112 ) ;
#77 = FACE_OUTER_BOUND ( 'NONE', #225, .T. ) ;
#78 = PERSON_AND_ORGANIZATION ( #279, #309 ) ;
#79 = FACE_BOUND ( 'NONE', #270, .T. ) ;
#80 = CIRCLE ( 'NONE', #237, 0.6499999999999996891 ) ;
#81 = DATE_AND_TIME ( #301, #96 ) ;
#82 = DIRECTION ( 'NONE',  ( 3.491481338843133355E-15, -1.232449278406344847E-16, 1.000000000000000000 ) ) ;
#83 = FACE_OUTER_BOUND ( 'NONE', #32, .T. ) ;
#84 = CLOSED_SHELL ( 'NONE', ( #87, #217, #138, #228, #68, #27, #211, #153, #164, #259 ) ) ;
#85 = CYLINDRICAL_SURFACE ( 'NONE', #115, 0.6499999999999998002 ) ;
#86 = FACE_OUTER_BOUND ( 'NONE', #51, .T. ) ;
#87 = ADVANCED_FACE ( 'NONE', ( #28, #311 ), #76, .T. ) ;
#88 = CARTESIAN_POINT ( 'NONE',  ( 6.982962677686266711E-15, 0.6499999999999996891, 2.000000000000000000 ) ) ;
#89 = CONICAL_SURFACE ( 'NONE', #102, 1.999999999999997113, 0.7853981633974433940 ) ;
#90 = CARTESIAN_POINT ( 'NONE',  ( 3.247077645124114651E-14, -1.999999999999997780, 9.300000000000002487 ) ) ;
#91 = EDGE_CURVE ( 'NONE', #46, #46, #60, .T. ) ;
#92 = VERTEX_POINT ( 'NONE', #126 ) ;
#93 = PRODUCT_DEFINITION_SHAPE ( 'NONE', 'NONE',  #178 ) ;
#94 = EDGE_LOOP ( 'NONE', ( #286 ) ) ;
#95 = DATE_AND_TIME ( #321, #40 ) ;
#96 = LOCAL_TIME ( 11, 23, 4.000000000000000000, #52 ) ;
#97 = EDGE_LOOP ( 'NONE', ( #199 ) ) ;
#98 = DATE_AND_TIME ( #180, #1 ) ;
#99 = EDGE_LOOP ( 'NONE', ( #227 ) ) ;
#100 = APPLICATION_PROTOCOL_DEFINITION ( 'international standard', 'config_control_design', 1994, #167 ) ;
#101 = DATE_AND_TIME ( #127, #11 ) ;
#102 = AXIS2_PLACEMENT_3D ( 'NONE', #62, #243, #165 ) ;
#103 = PERSON_AND_ORGANIZATION ( #279, #309 ) ;
#104 = ORIENTED_EDGE ( 'NONE', *, *, #105, .T. ) ;
#105 = EDGE_CURVE ( 'NONE', #177, #177, #80, .T. ) ;
#106 = CARTESIAN_POINT ( 'NONE',  ( 1.361677722148822009E-14, 0.8639428900508245857, 3.899999999999999911 ) ) ;
#107 = MANIFOLD_SOLID_BREP ( 'Corps-Déplacer/Copier4[2]', #196 ) ;
#108 = PLANE ( 'NONE',  #144 ) ;
#109 = CYLINDRICAL_SURFACE ( 'NONE', #208, 1.959999999999999964 ) ;
#110 = DIRECTION ( 'NONE',  ( -3.491481338843133355E-15, 1.232449278406344847E-16, -1.000000000000000000 ) ) ;
#111 = CC_DESIGN_PERSON_AND_ORGANIZATION_ASSIGNMENT ( #74, #226, ( #178 ) ) ;
#112 = APPLICATION_CONTEXT ( 'configuration controlled 3d designs of mechanical parts and assemblies' ) ;
#113 = FACE_BOUND ( 'NONE', #43, .T. ) ;
#114 = LOCAL_TIME ( 11, 23, 4.000000000000000000, #283 ) ;
#115 = AXIS2_PLACEMENT_3D ( 'NONE', #42, #263, #193 ) ;
#116 = FACE_OUTER_BOUND ( 'NONE', #121, .T. ) ;
#117 = APPROVAL ( #206, 'UNSPECIFIED' ) ;
#118 = CARTESIAN_POINT ( 'NONE',  ( 1.361677722148822166E-14, -4.510057973943064175E-16, 3.900000000000000799 ) ) ;
#119 = DIRECTION ( 'NONE',  ( 3.491481338843133355E-15, -1.232449278406344847E-16, 1.000000000000000000 ) ) ;
#120 = VERTEX_POINT ( 'NONE', #300 ) ;
#121 = EDGE_LOOP ( 'NONE', ( #322 ) ) ;
#122 = APPROVAL_ROLE ( '' ) ;
#123 = PRODUCT ( '381955', '381955', '', ( #273 ) ) ;
#124 = COORDINATED_UNIVERSAL_TIME_OFFSET ( 1, 0, .AHEAD. ) ;
#125 = AXIS2_PLACEMENT_3D ( 'NONE', #216, #146, #289 ) ;
#126 = CARTESIAN_POINT ( 'NONE',  ( 1.361677722148822166E-14, -1.150000000000000355, 3.900000000000000799 ) ) ;
#127 = CALENDAR_DATE ( 2022, 11, 1 ) ;
#128 = PERSON_AND_ORGANIZATION_ROLE ( 'design_supplier' ) ;
#129 = ORIENTED_EDGE ( 'NONE', *, *, #221, .T. ) ;
#130 = EDGE_CURVE ( 'NONE', #45, #45, #170, .T. ) ;
#131 = CIRCLE ( 'NONE', #290, 0.6499999999999999112 ) ;
#132 = DATE_AND_TIME ( #155, #114 ) ;
#133 = PLANE ( 'NONE',  #244 ) ;
#134 = ORIENTED_EDGE ( 'NONE', *, *, #192, .F. ) ;
#135 = PERSON_AND_ORGANIZATION ( #279, #309 ) ;
#136 = EDGE_LOOP ( 'NONE', ( #129 ) ) ;
#137 = CIRCLE ( 'NONE', #125, 0.8639428900508250297 ) ;
#138 = ADVANCED_FACE ( 'NONE', ( #34, #55 ), #133, .F. ) ;
#139 = CC_DESIGN_DATE_AND_TIME_ASSIGNMENT ( #98, #4, ( #178 ) ) ;
#140 = ORIENTED_EDGE ( 'NONE', *, *, #303, .T. ) ;
#141 = DIRECTION ( 'NONE',  ( 0.0000000000000000000, -1.000000000000000000, 0.0000000000000000000 ) ) ;
#142 = CARTESIAN_POINT ( 'NONE',  ( 1.047444401652940953E-14, -3.400853623377349770E-16, 3.000000000000002665 ) ) ;
#143 = SECURITY_CLASSIFICATION ( '', '', #287 ) ;
#144 = AXIS2_PLACEMENT_3D ( 'NONE', #207, #56, #285 ) ;
#145 = CC_DESIGN_APPROVAL ( #117, ( #178 ) ) ;
#146 = DIRECTION ( 'NONE',  ( 3.491481338843133355E-15, -1.232449278406344847E-16, 1.000000000000000000 ) ) ;
#147 = CARTESIAN_POINT ( 'NONE',  ( 1.326762908760390423E-13, -4.653657836759941941E-15, 38.00000000000000000 ) ) ;
#148 = FACE_OUTER_BOUND ( 'NONE', #249, .T. ) ;
#149 = VERTEX_POINT ( 'NONE', #173 ) ;
#150 = TOROIDAL_SURFACE ( 'NONE', #293, 2.649999999999999911, 2.000000000000000000 ) ;
#151 = APPLICATION_PROTOCOL_DEFINITION ( 'international standard', 'config_control_design', 1994, #112 ) ;
#152 = VERTEX_POINT ( 'NONE', #295 ) ;
#153 = ADVANCED_FACE ( 'NONE', ( #79, #317 ), #89, .T. ) ;
#154 = CARTESIAN_POINT ( 'NONE',  ( -2.565572100061973441E-31, 8.998815561087007986E-33, -7.348090541168551300E-17 ) ) ;
#155 = CALENDAR_DATE ( 2022, 11, 1 ) ;
#156 = DIRECTION ( 'NONE',  ( 3.491481338843133355E-15, -1.232449278406344847E-16, 1.000000000000000000 ) ) ;
#157 = PRODUCT_DEFINITION_FORMATION_WITH_SPECIFIED_SOURCE ( 'ANY', '', #123, .NOT_KNOWN. ) ;
#158 = AXIS2_PLACEMENT_3D ( 'NONE', #118, #242, #250 ) ;
#159 = EDGE_LOOP ( 'NONE', ( #299 ) ) ;
#160 = DIRECTION ( 'NONE',  ( 3.491481338843133355E-15, -1.232449278406344847E-16, 1.000000000000000000 ) ) ;
#161 = CARTESIAN_POINT ( 'NONE',  ( 3.247077645124114651E-14, -1.116528407733732497E-15, 9.300000000000002487 ) ) ;
#162 = CC_DESIGN_SECURITY_CLASSIFICATION ( #143, ( #157 ) ) ;
#163 = DIRECTION ( 'NONE',  ( 3.491481338843133355E-15, -1.232449278406344847E-16, 1.000000000000000000 ) ) ;
#164 = ADVANCED_FACE ( 'NONE', ( #148 ), #240, .F. ) ;
#165 = DIRECTION ( 'NONE',  ( 0.0000000000000000000, 1.000000000000000000, 0.0000000000000000000 ) ) ;
#166 = DIRECTION ( 'NONE',  ( 3.491481338843133355E-15, -1.232449278406344847E-16, 1.000000000000000000 ) ) ;
#167 = APPLICATION_CONTEXT ( 'configuration controlled 3d designs of mechanical parts and assemblies' ) ;
#168 = CC_DESIGN_DATE_AND_TIME_ASSIGNMENT ( #132, #182, ( #143 ) ) ;
#169 = APPROVAL_PERSON_ORGANIZATION ( #78, #48, #277 ) ;
#170 = CIRCLE ( 'NONE', #284, 1.999999999999996669 ) ;
#171 = DIRECTION ( 'NONE',  ( 3.491481338843133355E-15, -1.224646799147353207E-16, 1.000000000000000000 ) ) ;
#172 = DIRECTION ( 'NONE',  ( -4.360181816633448487E-31, -1.000000000000000000, -1.232449278406344847E-16 ) ) ;
#173 = CARTESIAN_POINT ( 'NONE',  ( 1.047444401652940953E-14, -0.6500000000000001332, 3.000000000000002665 ) ) ;
#174 = ORIENTED_EDGE ( 'NONE', *, *, #221, .F. ) ;
#175 = DIRECTION ( 'NONE',  ( 1.000000000000000000, 0.0000000000000000000, 0.0000000000000000000 ) ) ;
#176 = AXIS2_PLACEMENT_3D ( 'NONE', #313, #292, #141 ) ;
#177 = VERTEX_POINT ( 'NONE', #223 ) ;
#178 = PRODUCT_DEFINITION ( 'UNKNOWN', '', #157, #24 ) ;
#179 = ORIENTED_EDGE ( 'NONE', *, *, #181, .T. ) ;
#180 = CALENDAR_DATE ( 2022, 11, 1 ) ;
#181 = EDGE_CURVE ( 'NONE', #224, #224, #137, .T. ) ;
#182 = DATE_TIME_ROLE ( 'classification_date' ) ;
#183 = DIRECTION ( 'NONE',  ( 0.0000000000000000000, -1.000000000000000000, 0.0000000000000000000 ) ) ;
#184 = CC_DESIGN_PERSON_AND_ORGANIZATION_ASSIGNMENT ( #103, #75, ( #157 ) ) ;
#185 = FACE_OUTER_BOUND ( 'NONE', #49, .T. ) ;
#186 = APPROVAL_ROLE ( '' ) ;
#187 = ORIENTED_EDGE ( 'NONE', *, *, #280, .T. ) ;
#188 = DIRECTION ( 'NONE',  ( 0.0000000000000000000, -1.000000000000000000, 0.0000000000000000000 ) ) ;
#189 = PERSON_AND_ORGANIZATION ( #279, #309 ) ;
#190 = CARTESIAN_POINT ( 'NONE',  ( 6.982962677686266711E-15, -2.449293598294706414E-16, 2.000000000000000000 ) ) ;
#191 = FACE_OUTER_BOUND ( 'NONE', #235, .T. ) ;
#192 = EDGE_CURVE ( 'NONE', #149, #149, #131, .T. ) ;
#193 = DIRECTION ( 'NONE',  ( 4.275831445896958607E-31, 1.000000000000000000, 1.224646799147353207E-16 ) ) ;
#194 = DIRECTION ( 'NONE',  ( -4.303073656626438695E-31, -1.000000000000000000, -1.232449278406344847E-16 ) ) ;
#195 = DIRECTION ( 'NONE',  ( 0.0000000000000000000, -1.000000000000000000, 0.0000000000000000000 ) ) ;
#196 = CLOSED_SHELL ( 'NONE', ( #35, #266, #275 ) ) ;
#197 = FACE_OUTER_BOUND ( 'NONE', #94, .T. ) ;
#198 = VERTEX_POINT ( 'NONE', #70 ) ;
#199 = ORIENTED_EDGE ( 'NONE', *, *, #130, .F. ) ;
#200 = EDGE_CURVE ( 'NONE', #152, #152, #44, .T. ) ;
#201 = APPROVAL_DATE_TIME ( #95, #117 ) ;
#202 = AXIS2_PLACEMENT_3D ( 'NONE', #209, #156, #13 ) ;
#203 = CC_DESIGN_APPROVAL ( #48, ( #143 ) ) ;
#204 = EDGE_LOOP ( 'NONE', ( #134 ) ) ;
#205 = PRODUCT_RELATED_PRODUCT_CATEGORY ( 'detail', '', ( #123 ) ) ;
#206 = APPROVAL_STATUS ( 'not_yet_approved' ) ;
#207 = CARTESIAN_POINT ( 'NONE',  ( -1.282786050030986720E-31, 4.499407780543503993E-33, -3.674045270584275650E-17 ) ) ;
#208 = AXIS2_PLACEMENT_3D ( 'NONE', #233, #160, #188 ) ;
#209 = CARTESIAN_POINT ( 'NONE',  ( 3.247077645124114651E-14, 1.999999999999995337, 9.300000000000000711 ) ) ;
#210 = DIRECTION ( 'NONE',  ( 3.491481338843133355E-15, -1.232449278406344847E-16, 1.000000000000000000 ) ) ;
#211 = ADVANCED_FACE ( 'NONE', ( #116, #83 ), #41, .T. ) ;
#212 = APPROVAL_STATUS ( 'not_yet_approved' ) ;
#213 = EDGE_LOOP ( 'NONE', ( #140 ) ) ;
#214 = CIRCLE ( 'NONE', #33, 1.999999999999997113 ) ;
#215 = EDGE_LOOP ( 'NONE', ( #174 ) ) ;
#216 = CARTESIAN_POINT ( 'NONE',  ( 1.361677722148822166E-14, -4.510057973943064175E-16, 3.900000000000000799 ) ) ;
#217 = ADVANCED_FACE ( 'NONE', ( #14, #197 ), #150, .F. ) ;
#218 = PLANE ( 'NONE',  #255 ) ;
#219 = DIRECTION ( 'NONE',  ( 3.491481338843133355E-15, -1.232449278406344847E-16, 1.000000000000000000 ) ) ;
#220 = DIRECTION ( 'NONE',  ( 0.0000000000000000000, -1.000000000000000000, 0.0000000000000000000 ) ) ;
#221 = EDGE_CURVE ( 'NONE', #120, #120, #7, .T. ) ;
#222 = DIRECTION ( 'NONE',  ( 4.303073656626438695E-31, 1.000000000000000000, 1.232449278406344847E-16 ) ) ;
#223 = CARTESIAN_POINT ( 'NONE',  ( 2.137183397710479182E-32, 0.6499999999999996891, 6.121136532892404794E-18 ) ) ;
#224 = VERTEX_POINT ( 'NONE', #26 ) ;
#225 = EDGE_LOOP ( 'NONE', ( #104 ) ) ;
#226 = PERSON_AND_ORGANIZATION_ROLE ( 'creator' ) ;
#227 = ORIENTED_EDGE ( 'NONE', *, *, #91, .F. ) ;
#228 = ADVANCED_FACE ( 'NONE', ( #316, #113 ), #314, .T. ) ;
#229 = PERSON_AND_ORGANIZATION ( #279, #309 ) ;
#230 = EDGE_LOOP ( 'NONE', ( #239 ) ) ;
#231 = COORDINATED_UNIVERSAL_TIME_OFFSET ( 1, 0, .AHEAD. ) ;
#232 = ORIENTED_EDGE ( 'NONE', *, *, #59, .T. ) ;
#233 = CARTESIAN_POINT ( 'NONE',  ( 1.326762908760390423E-13, -4.653657836759941941E-15, 38.00000000000000000 ) ) ;
#234 = APPROVAL_STATUS ( 'not_yet_approved' ) ;
#235 = EDGE_LOOP ( 'NONE', ( #10 ) ) ;
#236 = DIRECTION ( 'NONE',  ( 3.491481338843133355E-15, -1.232449278406344847E-16, 1.000000000000000000 ) ) ;
#237 = AXIS2_PLACEMENT_3D ( 'NONE', #154, #53, #252 ) ;
#238 = ADVANCED_BREP_SHAPE_REPRESENTATION ( '381955', ( #323, #107, #25 ), #16 ) ;
#239 = ORIENTED_EDGE ( 'NONE', *, *, #181, .F. ) ;
#240 = PLANE ( 'NONE',  #65 ) ;
#241 = DIRECTION ( 'NONE',  ( 0.0000000000000000000, -1.000000000000000000, 0.0000000000000000000 ) ) ;
#242 = DIRECTION ( 'NONE',  ( 3.491481338843133355E-15, -1.232449278406344847E-16, 1.000000000000000000 ) ) ;
#243 = DIRECTION ( 'NONE',  ( -3.491481338843133355E-15, 1.232449278406344847E-16, -1.000000000000000000 ) ) ;
#244 = AXIS2_PLACEMENT_3D ( 'NONE', #106, #210, #305 ) ;
#245 = CARTESIAN_POINT ( 'NONE',  ( 1.326762908760390423E-13, -1.600000000000000977, 38.00000000000000000 ) ) ;
#246 = ORIENTED_EDGE ( 'NONE', *, *, #200, .F. ) ;
#247 = DIRECTION ( 'NONE',  ( 0.0000000000000000000, 0.0000000000000000000, 1.000000000000000000 ) ) ;
#248 = PERSON_AND_ORGANIZATION ( #279, #309 ) ;
#249 = EDGE_LOOP ( 'NONE', ( #187 ) ) ;
#250 = DIRECTION ( 'NONE',  ( 0.0000000000000000000, -1.000000000000000000, 0.0000000000000000000 ) ) ;
#251 = AXIS2_PLACEMENT_3D ( 'NONE', #147, #318, #220 ) ;
#252 = DIRECTION ( 'NONE',  ( 4.275831445896958607E-31, 1.000000000000000000, 1.224646799147353207E-16 ) ) ;
#253 = CIRCLE ( 'NONE', #158, 1.149999999999999911 ) ;
#254 = EDGE_LOOP ( 'NONE', ( #179 ) ) ;
#255 = AXIS2_PLACEMENT_3D ( 'NONE', #37, #171, #294 ) ;
#256 = PERSON_AND_ORGANIZATION_ROLE ( 'classification_officer' ) ;
#257 = FACE_BOUND ( 'NONE', #136, .T. ) ;
#258 = CARTESIAN_POINT ( 'NONE',  ( 1.326762908760390423E-13, -4.653657836759941941E-15, 38.00000000000000000 ) ) ;
#259 = ADVANCED_FACE ( 'NONE', ( #86 ), #19, .F. ) ;
#260 = DIRECTION ( 'NONE',  ( 3.491481338843133355E-15, -1.232449278406344847E-16, 1.000000000000000000 ) ) ;
#261 = CC_DESIGN_PERSON_AND_ORGANIZATION_ASSIGNMENT ( #229, #128, ( #157 ) ) ;
#262 = APPROVAL ( #212, 'UNSPECIFIED' ) ;
#263 = DIRECTION ( 'NONE',  ( -3.491481338843133355E-15, 1.224646799147353207E-16, -1.000000000000000000 ) ) ;
#264 = CARTESIAN_POINT ( 'NONE',  ( 1.326762908760390423E-13, -4.653657836759941941E-15, 38.00000000000000000 ) ) ;
#265 = DIRECTION ( 'NONE',  ( 3.491481338843133355E-15, -1.232449278406344847E-16, 1.000000000000000000 ) ) ;
#266 = ADVANCED_FACE ( 'NONE', ( #64, #191 ), #85, .T. ) ;
#267 = AXIS2_PLACEMENT_3D ( 'NONE', #63, #312, #195 ) ;
#268 = DIRECTION ( 'NONE',  ( 0.0000000000000000000, -1.000000000000000000, 0.0000000000000000000 ) ) ;
#269 = CARTESIAN_POINT ( 'NONE',  ( 3.247077645124114651E-14, -1.116528407733732497E-15, 9.300000000000002487 ) ) ;
#270 = EDGE_LOOP ( 'NONE', ( #9 ) ) ;
#271 = AXIS2_PLACEMENT_3D ( 'NONE', #190, #288, #58 ) ;
#272 = CARTESIAN_POINT ( 'NONE',  ( 0.0000000000000000000, 0.0000000000000000000, 0.0000000000000000000 ) ) ;
#273 = MECHANICAL_CONTEXT ( 'NONE', #112, 'mechanical' ) ;
#274 = EDGE_LOOP ( 'NONE', ( #47 ) ) ;
#275 = ADVANCED_FACE ( 'NONE', ( #36 ), #218, .T. ) ;
#276 = AXIS2_PLACEMENT_3D ( 'NONE', #269, #219, #61 ) ;
#277 = APPROVAL_ROLE ( '' ) ;
#278 = ORIENTED_EDGE ( 'NONE', *, *, #59, .F. ) ;
#279 = PERSON ( 'UNSPECIFIED', 'UNSPECIFIED', 'UNSPECIFIED', ('UNSPECIFIED'), ('UNSPECIFIED'), ('UNSPECIFIED') ) ;
#280 = EDGE_CURVE ( 'NONE', #319, #319, #297, .T. ) ;
#281 = CARTESIAN_POINT ( 'NONE',  ( 2.692194109054554110E-14, -9.206614540655557907E-16, 7.710750388677675815 ) ) ;
#282 = CC_DESIGN_APPROVAL ( #262, ( #157 ) ) ;
#283 = COORDINATED_UNIVERSAL_TIME_OFFSET ( 1, 0, .AHEAD. ) ;
#284 = AXIS2_PLACEMENT_3D ( 'NONE', #161, #260, #30 ) ;
#285 = DIRECTION ( 'NONE',  ( -4.275831445896958607E-31, -1.000000000000000000, -1.224646799147353207E-16 ) ) ;
#286 = ORIENTED_EDGE ( 'NONE', *, *, #192, .T. ) ;
#287 = SECURITY_CLASSIFICATION_LEVEL ( 'unclassified' ) ;
#288 = DIRECTION ( 'NONE',  ( -3.491481338843133355E-15, 1.224646799147353207E-16, -1.000000000000000000 ) ) ;
#289 = DIRECTION ( 'NONE',  ( 0.0000000000000000000, -1.000000000000000000, 0.0000000000000000000 ) ) ;
#290 = AXIS2_PLACEMENT_3D ( 'NONE', #142, #166, #241 ) ;
#291 = CARTESIAN_POINT ( 'NONE',  ( 1.326762908760390423E-13, -4.653657836759941941E-15, 38.00000000000000000 ) ) ;
#292 = DIRECTION ( 'NONE',  ( 3.491481338843133355E-15, -1.232449278406344847E-16, 1.000000000000000000 ) ) ;
#293 = AXIS2_PLACEMENT_3D ( 'NONE', #15, #163, #172 ) ;
#294 = DIRECTION ( 'NONE',  ( -4.275831445896958607E-31, -1.000000000000000000, -1.224646799147353207E-16 ) ) ;
#295 = CARTESIAN_POINT ( 'NONE',  ( 6.982962677686273021E-15, -0.6500000000000001332, 2.000000000000001776 ) ) ;
#296 = AXIS2_PLACEMENT_3D ( 'NONE', #291, #265, #268 ) ;
#297 = CIRCLE ( 'NONE', #296, 1.599999999999996314 ) ;
#298 = PERSON_AND_ORGANIZATION ( #279, #309 ) ;
#299 = ORIENTED_EDGE ( 'NONE', *, *, #315, .F. ) ;
#300 = CARTESIAN_POINT ( 'NONE',  ( 3.247077645124114651E-14, -1.960000000000001297, 9.300000000000002487 ) ) ;
#301 = CALENDAR_DATE ( 2022, 11, 1 ) ;
#302 = FACE_OUTER_BOUND ( 'NONE', #215, .T. ) ;
#303 = EDGE_CURVE ( 'NONE', #198, #198, #214, .T. ) ;
#304 = ORIENTED_EDGE ( 'NONE', *, *, #130, .T. ) ;
#305 = DIRECTION ( 'NONE',  ( -4.303073656626438695E-31, -1.000000000000000000, -1.232449278406344847E-16 ) ) ;
#306 = APPROVAL_PERSON_ORGANIZATION ( #248, #117, #122 ) ;
#307 = AXIS2_PLACEMENT_3D ( 'NONE', #258, #82, #183 ) ;
#308 = FACE_OUTER_BOUND ( 'NONE', #97, .T. ) ;
#309 = ORGANIZATION ( 'UNSPECIFIED', 'UNSPECIFIED', '' ) ;
#310 = APPROVAL_DATE_TIME ( #81, #262 ) ;
#311 = FACE_OUTER_BOUND ( 'NONE', #71, .T. ) ;
#312 = DIRECTION ( 'NONE',  ( 3.491481338843133355E-15, -1.232449278406344847E-16, 1.000000000000000000 ) ) ;
#313 = CARTESIAN_POINT ( 'NONE',  ( 1.361677722148822166E-14, -4.510057973943064175E-16, 3.900000000000000799 ) ) ;
#314 = CONICAL_SURFACE ( 'NONE', #176, 1.149999999999999911, 0.2094395102393127039 ) ;
#315 = EDGE_CURVE ( 'NONE', #92, #92, #253, .T. ) ;
#316 = FACE_OUTER_BOUND ( 'NONE', #5, .T. ) ;
#317 = FACE_OUTER_BOUND ( 'NONE', #213, .T. ) ;
#318 = DIRECTION ( 'NONE',  ( 3.491481338843133355E-15, -1.232449278406344847E-16, 1.000000000000000000 ) ) ;
#319 = VERTEX_POINT ( 'NONE', #245 ) ;
#320 = VERTEX_POINT ( 'NONE', #50 ) ;
#321 = CALENDAR_DATE ( 2022, 11, 1 ) ;
#322 = ORIENTED_EDGE ( 'NONE', *, *, #303, .F. ) ;
#323 = MANIFOLD_SOLID_BREP ( 'Corps-Déplacer/Copier4[1]', #84 ) ;
ENDSEC;
END-ISO-10303-21;
