ISO-10303-21;
HEADER;
FILE_DESCRIPTION (( 'STEP AP203' ),
    '1' );
FILE_NAME ('381954.step',
    '2022-01-11T10:23:03',
    ( '' ),
    ( '' ),
    'SwSTEP 2.0',
    'SolidWorks 2019',
    '' );
FILE_SCHEMA (( 'CONFIG_CONTROL_DESIGN' ));
ENDSEC;

DATA;
#1 = DIRECTION ( 'NONE',  ( 3.491481338843133355E-15, -1.224646799147353207E-16, 1.000000000000000000 ) ) ;
#2 = DIRECTION ( 'NONE',  ( -3.491481338843133355E-15, 1.224646799147353207E-16, -1.000000000000000000 ) ) ;
#3 = UNCERTAINTY_MEASURE_WITH_UNIT (LENGTH_MEASURE( 1.000000000000000082E-05 ), #56, 'distance_accuracy_value', 'NONE');
#4 = FACE_BOUND ( 'NONE', #57, .T. ) ;
#5 = TOROIDAL_SURFACE ( 'NONE', #184, 2.600000000000000533, 2.000000000000000888 ) ;
#6 = CC_DESIGN_PERSON_AND_ORGANIZATION_ASSIGNMENT ( #231, #7, ( #20 ) ) ;
#7 = PERSON_AND_ORGANIZATION_ROLE ( 'creator' ) ;
#8 = EDGE_LOOP ( 'NONE', ( #63 ) ) ;
#9 = VERTEX_POINT ( 'NONE', #53 ) ;
#10 = EDGE_LOOP ( 'NONE', ( #160 ) ) ;
#11 = APPLICATION_CONTEXT ( 'configuration controlled 3d designs of mechanical parts and assemblies' ) ;
#12 = ADVANCED_FACE ( 'NONE', ( #141 ), #24, .F. ) ;
#13 = COORDINATED_UNIVERSAL_TIME_OFFSET ( 1, 0, .AHEAD. ) ;
#14 = AXIS2_PLACEMENT_3D ( 'NONE', #169, #217, #281 ) ;
#15 = LOCAL_TIME ( 11, 23, 3.000000000000000000, #13 ) ;
#16 = VERTEX_POINT ( 'NONE', #260 ) ;
#17 = PRODUCT_DEFINITION_SHAPE ( 'NONE', 'NONE',  #20 ) ;
#18 = APPROVAL_STATUS ( 'not_yet_approved' ) ;
#19 = EDGE_LOOP ( 'NONE', ( #181 ) ) ;
#20 = PRODUCT_DEFINITION ( 'UNKNOWN', '', #220, #153 ) ;
#21 = FACE_OUTER_BOUND ( 'NONE', #25, .T. ) ;
#22 = DIRECTION ( 'NONE',  ( -3.491481338843133355E-15, 1.224646799147353207E-16, -1.000000000000000000 ) ) ;
#23 = APPROVAL_ROLE ( '' ) ;
#24 = PLANE ( 'NONE',  #341 ) ;
#25 = EDGE_LOOP ( 'NONE', ( #83 ) ) ;
#26 = AXIS2_PLACEMENT_3D ( 'NONE', #164, #304, #65 ) ;
#27 = DIRECTION ( 'NONE',  ( 0.0000000000000000000, 1.000000000000000000, 0.0000000000000000000 ) ) ;
#28 = VERTEX_POINT ( 'NONE', #121 ) ;
#29 = CARTESIAN_POINT ( 'NONE',  ( 1.326762908760390423E-13, -4.653657836759941941E-15, 38.00000000000000000 ) ) ;
#30 = CARTESIAN_POINT ( 'NONE',  ( 0.0000000000000000000, 0.0000000000000000000, 0.0000000000000000000 ) ) ;
#31 = CARTESIAN_POINT ( 'NONE',  ( 3.316907271900976056E-14, 2.969524369670473466E-32, 9.500000000000000000 ) ) ;
#32 = CARTESIAN_POINT ( 'NONE',  ( 1.431507348925684360E-14, -5.021051876504147385E-16, 4.099999999999999645 ) ) ;
#33 = EDGE_CURVE ( 'NONE', #28, #28, #289, .T. ) ;
#34 = ADVANCED_FACE ( 'NONE', ( #245 ), #303, .F. ) ;
#35 = ORGANIZATION ( 'UNSPECIFIED', 'UNSPECIFIED', '' ) ;
#36 =( NAMED_UNIT ( * ) SI_UNIT ( $, .STERADIAN. ) SOLID_ANGLE_UNIT ( ) );
#37 = FACE_BOUND ( 'NONE', #335, .T. ) ;
#38 = DATE_AND_TIME ( #189, #79 ) ;
#39 = ORIENTED_EDGE ( 'NONE', *, *, #123, .F. ) ;
#40 = AXIS2_PLACEMENT_3D ( 'NONE', #61, #68, #144 ) ;
#41 = DATE_TIME_ROLE ( 'classification_date' ) ;
#42 = DIRECTION ( 'NONE',  ( -3.491481338843133355E-15, 1.224646799147353207E-16, -1.000000000000000000 ) ) ;
#43 = DIRECTION ( 'NONE',  ( -4.275831445896958607E-31, -1.000000000000000000, -1.224646799147353207E-16 ) ) ;
#44 = DIRECTION ( 'NONE',  ( 0.0000000000000000000, 1.000000000000000000, 0.0000000000000000000 ) ) ;
#45 = DIRECTION ( 'NONE',  ( 3.491481338843133355E-15, -1.224646799147353207E-16, 1.000000000000000000 ) ) ;
#46 = CIRCLE ( 'NONE', #106, 0.6437047985323816057 ) ;
#47 = DIRECTION ( 'NONE',  ( 0.0000000000000000000, 1.000000000000000000, 0.0000000000000000000 ) ) ;
#48 = CARTESIAN_POINT ( 'NONE',  ( 0.0000000000000000000, 0.0000000000000000000, 0.0000000000000000000 ) ) ;
#49 = DIRECTION ( 'NONE',  ( -3.491481338843133355E-15, 1.224646799147353207E-16, -1.000000000000000000 ) ) ;
#50 = DIRECTION ( 'NONE',  ( 0.0000000000000000000, 1.000000000000000000, 0.0000000000000000000 ) ) ;
#51 = VERTEX_POINT ( 'NONE', #319 ) ;
#52 = CC_DESIGN_PERSON_AND_ORGANIZATION_ASSIGNMENT ( #115, #116, ( #220 ) ) ;
#53 = CARTESIAN_POINT ( 'NONE',  ( 1.312796983405018142E-13, 1.999999999999992228, 37.59999999999999432 ) ) ;
#54 = APPROVAL_DATE_TIME ( #292, #173 ) ;
#55 = EDGE_LOOP ( 'NONE', ( #266 ) ) ;
#56 =( LENGTH_UNIT ( ) NAMED_UNIT ( * ) SI_UNIT ( .MILLI., .METRE. ) );
#57 = EDGE_LOOP ( 'NONE', ( #299 ) ) ;
#58 = AXIS2_PLACEMENT_3D ( 'NONE', #252, #188, #27 ) ;
#59 = EDGE_CURVE ( 'NONE', #238, #238, #320, .T. ) ;
#60 = DATE_AND_TIME ( #306, #311 ) ;
#61 = CARTESIAN_POINT ( 'NONE',  ( 3.316907271900976056E-14, -1.163414459189985485E-15, 9.500000000000000000 ) ) ;
#62 = APPROVAL_DATE_TIME ( #38, #282 ) ;
#63 = ORIENTED_EDGE ( 'NONE', *, *, #241, .F. ) ;
#64 = SHAPE_DEFINITION_REPRESENTATION ( #17, #156 ) ;
#65 = DIRECTION ( 'NONE',  ( 4.275831445896958607E-31, 1.000000000000000000, 1.224646799147353207E-16 ) ) ;
#66 = EDGE_CURVE ( 'NONE', #205, #205, #149, .T. ) ;
#67 = CIRCLE ( 'NONE', #239, 0.5999999999999998668 ) ;
#68 = DIRECTION ( 'NONE',  ( -3.491481338843133355E-15, 1.224646799147353207E-16, -1.000000000000000000 ) ) ;
#69 = CARTESIAN_POINT ( 'NONE',  ( 1.326762908760390423E-13, 1.199807826129476644E-32, 38.00000000000000000 ) ) ;
#70 = DIRECTION ( 'NONE',  ( 3.491481338843133355E-15, -1.224646799147353207E-16, 1.000000000000000000 ) ) ;
#71 = AXIS2_PLACEMENT_3D ( 'NONE', #168, #22, #118 ) ;
#72 = CIRCLE ( 'NONE', #263, 1.999999999999997113 ) ;
#73 = FACE_BOUND ( 'NONE', #10, .T. ) ;
#74 = AXIS2_PLACEMENT_3D ( 'NONE', #202, #258, #147 ) ;
#75 = PLANE ( 'NONE',  #343 ) ;
#76 = FACE_OUTER_BOUND ( 'NONE', #250, .T. ) ;
#77 = CLOSED_SHELL ( 'NONE', ( #12, #120, #180, #254, #233, #192, #269, #302, #337, #247, #34 ) ) ;
#78 = DIRECTION ( 'NONE',  ( -4.275831445896958607E-31, -1.000000000000000000, -1.224646799147353207E-16 ) ) ;
#79 = LOCAL_TIME ( 11, 23, 3.000000000000000000, #328 ) ;
#80 = DIRECTION ( 'NONE',  ( 0.0000000000000000000, 0.0000000000000000000, 1.000000000000000000 ) ) ;
#81 = PERSON_AND_ORGANIZATION ( #199, #35 ) ;
#82 = APPLICATION_PROTOCOL_DEFINITION ( 'international standard', 'config_control_design', 1994, #11 ) ;
#83 = ORIENTED_EDGE ( 'NONE', *, *, #86, .F. ) ;
#84 = PERSON_AND_ORGANIZATION ( #199, #35 ) ;
#85 = ORIENTED_EDGE ( 'NONE', *, *, #177, .T. ) ;
#86 = EDGE_CURVE ( 'NONE', #182, #182, #166, .T. ) ;
#87 = AXIS2_PLACEMENT_3D ( 'NONE', #223, #45, #339 ) ;
#88 = APPROVAL_DATE_TIME ( #60, #95 ) ;
#89 = DIRECTION ( 'NONE',  ( -3.491481338843133355E-15, 1.224646799147353207E-16, -1.000000000000000000 ) ) ;
#90 = EDGE_LOOP ( 'NONE', ( #134 ) ) ;
#91 = DIRECTION ( 'NONE',  ( 4.333560346773609638E-31, 1.000000000000000000, 1.224646799147353207E-16 ) ) ;
#92 = AXIS2_PLACEMENT_3D ( 'NONE', #48, #151, #200 ) ;
#93 = CARTESIAN_POINT ( 'NONE',  ( 6.284666409917640040E-15, 4.499279347985568718E-33, 1.800000000000000044 ) ) ;
#94 = DIRECTION ( 'NONE',  ( -3.491481338843133355E-15, 1.224646799147353207E-16, -1.000000000000000000 ) ) ;
#95 = APPROVAL ( #244, 'UNSPECIFIED' ) ;
#96 = FACE_OUTER_BOUND ( 'NONE', #108, .T. ) ;
#97 = APPLICATION_CONTEXT ( 'configuration controlled 3d designs of mechanical parts and assemblies' ) ;
#98 = CARTESIAN_POINT ( 'NONE',  ( 1.192628359376436333E-14, -4.183177170772591815E-16, 3.415823381635491263 ) ) ;
#99 = FACE_OUTER_BOUND ( 'NONE', #262, .T. ) ;
#100 = FACE_OUTER_BOUND ( 'NONE', #280, .T. ) ;
#101 = CIRCLE ( 'NONE', #300, 1.999999999999996669 ) ;
#102 = FACE_OUTER_BOUND ( 'NONE', #242, .T. ) ;
#103 = EDGE_LOOP ( 'NONE', ( #155 ) ) ;
#104 = CALENDAR_DATE ( 2022, 11, 1 ) ;
#105 = MANIFOLD_SOLID_BREP ( 'Corps-Déplacer/Copier1[1]', #77 ) ;
#106 = AXIS2_PLACEMENT_3D ( 'NONE', #98, #2, #50 ) ;
#107 = EDGE_LOOP ( 'NONE', ( #39 ) ) ;
#108 = EDGE_LOOP ( 'NONE', ( #272 ) ) ;
#109 = MANIFOLD_SOLID_BREP ( 'Corps-Déplacer/Copier1[2]', #208 ) ;
#110 = CALENDAR_DATE ( 2022, 11, 1 ) ;
#111 = EDGE_LOOP ( 'NONE', ( #323 ) ) ;
#112 = CIRCLE ( 'NONE', #58, 0.5999999999999999778 ) ;
#113 = AXIS2_PLACEMENT_3D ( 'NONE', #240, #80, #178 ) ;
#114 = CC_DESIGN_DATE_AND_TIME_ASSIGNMENT ( #212, #324, ( #20 ) ) ;
#115 = PERSON_AND_ORGANIZATION ( #199, #35 ) ;
#116 = PERSON_AND_ORGANIZATION_ROLE ( 'design_supplier' ) ;
#117 = FACE_OUTER_BOUND ( 'NONE', #237, .T. ) ;
#118 = DIRECTION ( 'NONE',  ( 4.275831445896958607E-31, 1.000000000000000000, 1.224646799147353207E-16 ) ) ;
#119 = CARTESIAN_POINT ( 'NONE',  ( 6.284666409917640040E-15, 4.499279347985568718E-33, 1.800000000000000044 ) ) ;
#120 = ADVANCED_FACE ( 'NONE', ( #117, #219 ), #274, .T. ) ;
#121 = CARTESIAN_POINT ( 'NONE',  ( 3.316907271900976056E-14, 1.959999999999998632, 9.500000000000000000 ) ) ;
#122 = FACE_OUTER_BOUND ( 'NONE', #332, .T. ) ;
#123 = EDGE_CURVE ( 'NONE', #294, #294, #162, .T. ) ;
#124 = CC_DESIGN_APPROVAL ( #95, ( #278 ) ) ;
#125 = DIRECTION ( 'NONE',  ( 0.0000000000000000000, -1.000000000000000000, 0.0000000000000000000 ) ) ;
#126 = PLANE ( 'NONE',  #284 ) ;
#127 = DIRECTION ( 'NONE',  ( -3.491481338843133355E-15, 1.224646799147353207E-16, -1.000000000000000000 ) ) ;
#128 = CARTESIAN_POINT ( 'NONE',  ( 6.284666409917640040E-15, 0.5999999999999996447, 1.800000000000000044 ) ) ;
#129 = EDGE_LOOP ( 'NONE', ( #206 ) ) ;
#130 = APPROVAL_PERSON_ORGANIZATION ( #84, #282, #142 ) ;
#131 = CARTESIAN_POINT ( 'NONE',  ( 2.762023735831416461E-14, 1.959999999999998632, 7.910750388677674216 ) ) ;
#132 = ORIENTED_EDGE ( 'NONE', *, *, #228, .F. ) ;
#133 = APPROVAL_STATUS ( 'not_yet_approved' ) ;
#134 = ORIENTED_EDGE ( 'NONE', *, *, #228, .T. ) ;
#135 = EDGE_CURVE ( 'NONE', #51, #51, #112, .T. ) ;
#136 = AXIS2_PLACEMENT_3D ( 'NONE', #145, #165, #44 ) ;
#137 = AXIS2_PLACEMENT_3D ( 'NONE', #32, #312, #310 ) ;
#138 = PERSON_AND_ORGANIZATION ( #199, #35 ) ;
#139 = CARTESIAN_POINT ( 'NONE',  ( 1.326762908760390423E-13, -4.653657836759941941E-15, 38.00000000000000000 ) ) ;
#140 = COORDINATED_UNIVERSAL_TIME_OFFSET ( 1, 0, .AHEAD. ) ;
#141 = FACE_OUTER_BOUND ( 'NONE', #90, .T. ) ;
#142 = APPROVAL_ROLE ( '' ) ;
#143 = FACE_OUTER_BOUND ( 'NONE', #326, .T. ) ;
#144 = DIRECTION ( 'NONE',  ( 0.0000000000000000000, 1.000000000000000000, 0.0000000000000000000 ) ) ;
#145 = CARTESIAN_POINT ( 'NONE',  ( 6.284666409917640040E-15, -2.204364238465235576E-16, 1.800000000000000044 ) ) ;
#146 = FACE_OUTER_BOUND ( 'NONE', #55, .T. ) ;
#147 = DIRECTION ( 'NONE',  ( 0.0000000000000000000, 1.000000000000000000, 0.0000000000000000000 ) ) ;
#148 = CYLINDRICAL_SURFACE ( 'NONE', #230, 0.5999999999999997558 ) ;
#149 = CIRCLE ( 'NONE', #14, 1.959999999999999520 ) ;
#150 = AXIS2_PLACEMENT_3D ( 'NONE', #305, #285, #175 ) ;
#151 = DIRECTION ( 'NONE',  ( -3.491481338843133355E-15, 1.224646799147353207E-16, -1.000000000000000000 ) ) ;
#152 = CYLINDRICAL_SURFACE ( 'NONE', #167, 1.999999999999996669 ) ;
#153 = DESIGN_CONTEXT ( 'detailed design', #97, 'design' ) ;
#154 = CARTESIAN_POINT ( 'NONE',  ( 1.192628359376436333E-14, 0.6437047985323811616, 3.415823381635491263 ) ) ;
#155 = ORIENTED_EDGE ( 'NONE', *, *, #66, .T. ) ;
#156 = ADVANCED_BREP_SHAPE_REPRESENTATION ( '381954', ( #105, #109, #113 ), #336 ) ;
#157 = CARTESIAN_POINT ( 'NONE',  ( 1.431507348925684360E-14, 0.7891310281069549015, 4.099999999999999645 ) ) ;
#158 = ADVANCED_FACE ( 'NONE', ( #21 ), #333, .T. ) ;
#159 = COORDINATED_UNIVERSAL_TIME_OFFSET ( 1, 0, .AHEAD. ) ;
#160 = ORIENTED_EDGE ( 'NONE', *, *, #297, .F. ) ;
#161 = VERTEX_POINT ( 'NONE', #157 ) ;
#162 = CIRCLE ( 'NONE', #203, 1.599999999999996314 ) ;
#163 = APPROVAL_PERSON_ORGANIZATION ( #215, #95, #23 ) ;
#164 = CARTESIAN_POINT ( 'NONE',  ( 0.0000000000000000000, 0.0000000000000000000, 0.0000000000000000000 ) ) ;
#165 = DIRECTION ( 'NONE',  ( -3.491481338843133355E-15, 1.224646799147353207E-16, -1.000000000000000000 ) ) ;
#166 = CIRCLE ( 'NONE', #136, 0.5999999999999998668 ) ;
#167 = AXIS2_PLACEMENT_3D ( 'NONE', #259, #127, #229 ) ;
#168 = CARTESIAN_POINT ( 'NONE',  ( -2.351780527767125861E-31, 8.248935669756079182E-33, -6.735767141594874819E-17 ) ) ;
#169 = CARTESIAN_POINT ( 'NONE',  ( 2.762023735831416461E-14, -9.687875142347794459E-16, 7.910750388677674216 ) ) ;
#170 = FACE_BOUND ( 'NONE', #213, .T. ) ;
#171 = LOCAL_TIME ( 11, 23, 3.000000000000000000, #159 ) ;
#172 = FACE_OUTER_BOUND ( 'NONE', #8, .T. ) ;
#173 = APPROVAL ( #133, 'UNSPECIFIED' ) ;
#174 = CARTESIAN_POINT ( 'NONE',  ( -1.175890263883562930E-31, 4.124467834878039591E-33, -3.367883570797437410E-17 ) ) ;
#175 = DIRECTION ( 'NONE',  ( 0.0000000000000000000, -1.000000000000000000, 0.0000000000000000000 ) ) ;
#176 = DIRECTION ( 'NONE',  ( 0.0000000000000000000, 1.000000000000000000, 0.0000000000000000000 ) ) ;
#177 = EDGE_CURVE ( 'NONE', #16, #16, #101, .T. ) ;
#178 = DIRECTION ( 'NONE',  ( 1.000000000000000000, 0.0000000000000000000, 0.0000000000000000000 ) ) ;
#179 = CIRCLE ( 'NONE', #74, 1.150000000000000133 ) ;
#180 = ADVANCED_FACE ( 'NONE', ( #143, #196 ), #5, .F. ) ;
#181 = ORIENTED_EDGE ( 'NONE', *, *, #33, .T. ) ;
#182 = VERTEX_POINT ( 'NONE', #128 ) ;
#183 = ORIENTED_EDGE ( 'NONE', *, *, #86, .T. ) ;
#184 = AXIS2_PLACEMENT_3D ( 'NONE', #277, #42, #91 ) ;
#185 = ORIENTED_EDGE ( 'NONE', *, *, #135, .F. ) ;
#186 = AXIS2_PLACEMENT_3D ( 'NONE', #342, #70, #125 ) ;
#187 = PERSON_AND_ORGANIZATION ( #199, #35 ) ;
#188 = DIRECTION ( 'NONE',  ( -3.491481338843133355E-15, 1.224646799147353207E-16, -1.000000000000000000 ) ) ;
#189 = CALENDAR_DATE ( 2022, 11, 1 ) ;
#190 = EDGE_LOOP ( 'NONE', ( #185 ) ) ;
#191 = FACE_OUTER_BOUND ( 'NONE', #103, .T. ) ;
#192 = ADVANCED_FACE ( 'NONE', ( #37, #191 ), #225, .T. ) ;
#193 = CC_DESIGN_APPROVAL ( #173, ( #20 ) ) ;
#194 = PERSON_AND_ORGANIZATION_ROLE ( 'classification_officer' ) ;
#195 = DIRECTION ( 'NONE',  ( -3.491481338843133355E-15, 1.224646799147353207E-16, -1.000000000000000000 ) ) ;
#196 = FACE_OUTER_BOUND ( 'NONE', #190, .T. ) ;
#197 = FACE_OUTER_BOUND ( 'NONE', #301, .T. ) ;
#198 = CIRCLE ( 'NONE', #137, 0.7891310281069554566 ) ;
#199 = PERSON ( 'UNSPECIFIED', 'UNSPECIFIED', 'UNSPECIFIED', ('UNSPECIFIED'), ('UNSPECIFIED'), ('UNSPECIFIED') ) ;
#200 = DIRECTION ( 'NONE',  ( 4.275831445896958607E-31, 1.000000000000000000, 1.224646799147353207E-16 ) ) ;
#201 = DIRECTION ( 'NONE',  ( -4.275831445896958607E-31, -1.000000000000000000, -1.224646799147353207E-16 ) ) ;
#202 = CARTESIAN_POINT ( 'NONE',  ( 1.431507348925684676E-14, -5.021051876504148371E-16, 4.100000000000000533 ) ) ;
#203 = AXIS2_PLACEMENT_3D ( 'NONE', #139, #89, #218 ) ;
#204 = CONICAL_SURFACE ( 'NONE', #186, 0.7891310281069554566, 0.2094395102393069585 ) ;
#205 = VERTEX_POINT ( 'NONE', #131 ) ;
#206 = ORIENTED_EDGE ( 'NONE', *, *, #135, .T. ) ;
#207 =( NAMED_UNIT ( * ) PLANE_ANGLE_UNIT ( ) SI_UNIT ( $, .RADIAN. ) );
#208 = CLOSED_SHELL ( 'NONE', ( #308, #313, #158 ) ) ;
#209 = CARTESIAN_POINT ( 'NONE',  ( 1.431507348925684676E-14, 1.149999999999999689, 4.100000000000000533 ) ) ;
#210 = CC_DESIGN_APPROVAL ( #282, ( #220 ) ) ;
#211 = ORIENTED_EDGE ( 'NONE', *, *, #66, .F. ) ;
#212 = DATE_AND_TIME ( #267, #171 ) ;
#213 = EDGE_LOOP ( 'NONE', ( #296 ) ) ;
#214 = CC_DESIGN_DATE_AND_TIME_ASSIGNMENT ( #279, #41, ( #278 ) ) ;
#215 = PERSON_AND_ORGANIZATION ( #199, #35 ) ;
#216 = DIRECTION ( 'NONE',  ( 0.0000000000000000000, 1.000000000000000000, 0.0000000000000000000 ) ) ;
#217 = DIRECTION ( 'NONE',  ( -3.491481338843133355E-15, 1.224646799147353207E-16, -1.000000000000000000 ) ) ;
#218 = DIRECTION ( 'NONE',  ( 0.0000000000000000000, 1.000000000000000000, 0.0000000000000000000 ) ) ;
#219 = FACE_OUTER_BOUND ( 'NONE', #129, .T. ) ;
#220 = PRODUCT_DEFINITION_FORMATION_WITH_SPECIFIED_SOURCE ( 'ANY', '', #331, .NOT_KNOWN. ) ;
#221 = DIRECTION ( 'NONE',  ( -4.275831445896958607E-31, -1.000000000000000000, -1.224646799147353207E-16 ) ) ;
#222 = EDGE_CURVE ( 'NONE', #293, #293, #179, .T. ) ;
#223 = CARTESIAN_POINT ( 'NONE',  ( 1.431507348925684360E-14, 1.454115364633275318E-32, 4.099999999999999645 ) ) ;
#224 = DIRECTION ( 'NONE',  ( -3.491481338843133355E-15, 1.224646799147353207E-16, -1.000000000000000000 ) ) ;
#225 = CONICAL_SURFACE ( 'NONE', #150, 1.959999999999999520, 0.2094395102393127039 ) ;
#226 = DIRECTION ( 'NONE',  ( -3.491481338843133355E-15, 1.224646799147353207E-16, -1.000000000000000000 ) ) ;
#227 = DIRECTION ( 'NONE',  ( 0.0000000000000000000, 1.000000000000000000, 0.0000000000000000000 ) ) ;
#228 = EDGE_CURVE ( 'NONE', #317, #317, #67, .T. ) ;
#229 = DIRECTION ( 'NONE',  ( 4.275831445896958607E-31, 1.000000000000000000, 1.224646799147353207E-16 ) ) ;
#230 = AXIS2_PLACEMENT_3D ( 'NONE', #30, #226, #283 ) ;
#231 = PERSON_AND_ORGANIZATION ( #199, #35 ) ;
#232 = ORIENTED_EDGE ( 'NONE', *, *, #177, .F. ) ;
#233 = ADVANCED_FACE ( 'NONE', ( #73, #102 ), #255, .F. ) ;
#234 = CARTESIAN_POINT ( 'NONE',  ( 2.137183397710479182E-32, 0.5999999999999996447, 6.121136532892404794E-18 ) ) ;
#235 = ORIENTED_EDGE ( 'NONE', *, *, #59, .F. ) ;
#236 = APPROVAL_ROLE ( '' ) ;
#237 = EDGE_LOOP ( 'NONE', ( #132 ) ) ;
#238 = VERTEX_POINT ( 'NONE', #234 ) ;
#239 = AXIS2_PLACEMENT_3D ( 'NONE', #315, #224, #227 ) ;
#240 = CARTESIAN_POINT ( 'NONE',  ( 0.0000000000000000000, 0.0000000000000000000, 0.0000000000000000000 ) ) ;
#241 = EDGE_CURVE ( 'NONE', #9, #9, #72, .T. ) ;
#242 = EDGE_LOOP ( 'NONE', ( #268 ) ) ;
#243 = CARTESIAN_POINT ( 'NONE',  ( 3.316907271900976056E-14, -1.163414459189985485E-15, 9.500000000000000000 ) ) ;
#244 = APPROVAL_STATUS ( 'not_yet_approved' ) ;
#245 = FACE_OUTER_BOUND ( 'NONE', #107, .T. ) ;
#246 = LOCAL_TIME ( 11, 23, 3.000000000000000000, #140 ) ;
#247 = ADVANCED_FACE ( 'NONE', ( #172, #4 ), #257, .T. ) ;
#248 = DIRECTION ( 'NONE',  ( 4.275831445896958607E-31, 1.000000000000000000, 1.224646799147353207E-16 ) ) ;
#249 = PERSON_AND_ORGANIZATION ( #199, #35 ) ;
#250 = EDGE_LOOP ( 'NONE', ( #183 ) ) ;
#251 = AXIS2_PLACEMENT_3D ( 'NONE', #119, #338, #221 ) ;
#252 = CARTESIAN_POINT ( 'NONE',  ( 1.047444401652940007E-14, -3.673940397442059868E-16, 3.000000000000000000 ) ) ;
#253 = CYLINDRICAL_SURFACE ( 'NONE', #92, 1.959999999999999964 ) ;
#254 = ADVANCED_FACE ( 'NONE', ( #288, #122 ), #204, .T. ) ;
#255 = PLANE ( 'NONE',  #87 ) ;
#256 = FACE_OUTER_BOUND ( 'NONE', #19, .T. ) ;
#257 = CONICAL_SURFACE ( 'NONE', #264, 1.599999999999996314, 0.7853981633974433940 ) ;
#258 = DIRECTION ( 'NONE',  ( -3.491481338843133355E-15, 1.224646799147353207E-16, -1.000000000000000000 ) ) ;
#259 = CARTESIAN_POINT ( 'NONE',  ( 0.0000000000000000000, 0.0000000000000000000, 0.0000000000000000000 ) ) ;
#260 = CARTESIAN_POINT ( 'NONE',  ( 3.316907271900976056E-14, 1.999999999999995337, 9.500000000000000000 ) ) ;
#261 = EDGE_CURVE ( 'NONE', #298, #298, #46, .T. ) ;
#262 = EDGE_LOOP ( 'NONE', ( #232 ) ) ;
#263 = AXIS2_PLACEMENT_3D ( 'NONE', #314, #49, #47 ) ;
#264 = AXIS2_PLACEMENT_3D ( 'NONE', #29, #309, #176 ) ;
#265 = APPLICATION_PROTOCOL_DEFINITION ( 'international standard', 'config_control_design', 1994, #97 ) ;
#266 = ORIENTED_EDGE ( 'NONE', *, *, #241, .T. ) ;
#267 = CALENDAR_DATE ( 2022, 11, 1 ) ;
#268 = ORIENTED_EDGE ( 'NONE', *, *, #222, .T. ) ;
#269 = ADVANCED_FACE ( 'NONE', ( #197, #256 ), #253, .T. ) ;
#270 = CARTESIAN_POINT ( 'NONE',  ( 1.326762908760390423E-13, 1.599999999999991873, 38.00000000000000000 ) ) ;
#271 = EDGE_LOOP ( 'NONE', ( #235 ) ) ;
#272 = ORIENTED_EDGE ( 'NONE', *, *, #59, .T. ) ;
#273 = SECURITY_CLASSIFICATION_LEVEL ( 'unclassified' ) ;
#274 = CYLINDRICAL_SURFACE ( 'NONE', #26, 0.5999999999999998668 ) ;
#275 = PERSON_AND_ORGANIZATION_ROLE ( 'creator' ) ;
#276 = AXIS2_PLACEMENT_3D ( 'NONE', #69, #195, #248 ) ;
#277 = CARTESIAN_POINT ( 'NONE',  ( 1.047444401652939849E-14, -4.336808689942017736E-16, 2.999999999999999556 ) ) ;
#278 = SECURITY_CLASSIFICATION ( '', '', #273 ) ;
#279 = DATE_AND_TIME ( #110, #246 ) ;
#280 = EDGE_LOOP ( 'NONE', ( #85 ) ) ;
#281 = DIRECTION ( 'NONE',  ( 0.0000000000000000000, 1.000000000000000000, 0.0000000000000000000 ) ) ;
#282 = APPROVAL ( #18, 'UNSPECIFIED' ) ;
#283 = DIRECTION ( 'NONE',  ( 4.275831445896958607E-31, 1.000000000000000000, 1.224646799147353207E-16 ) ) ;
#284 = AXIS2_PLACEMENT_3D ( 'NONE', #174, #286, #78 ) ;
#285 = DIRECTION ( 'NONE',  ( 3.491481338843133355E-15, -1.224646799147353207E-16, 1.000000000000000000 ) ) ;
#286 = DIRECTION ( 'NONE',  ( 3.491481338843133355E-15, -1.224646799147353207E-16, 1.000000000000000000 ) ) ;
#287 = PRODUCT_RELATED_PRODUCT_CATEGORY ( 'detail', '', ( #331 ) ) ;
#288 = FACE_BOUND ( 'NONE', #111, .T. ) ;
#289 = CIRCLE ( 'NONE', #40, 1.959999999999999964 ) ;
#290 = FACE_OUTER_BOUND ( 'NONE', #271, .T. ) ;
#291 = CC_DESIGN_PERSON_AND_ORGANIZATION_ASSIGNMENT ( #249, #275, ( #220 ) ) ;
#292 = DATE_AND_TIME ( #104, #15 ) ;
#293 = VERTEX_POINT ( 'NONE', #209 ) ;
#294 = VERTEX_POINT ( 'NONE', #270 ) ;
#295 = MECHANICAL_CONTEXT ( 'NONE', #11, 'mechanical' ) ;
#296 = ORIENTED_EDGE ( 'NONE', *, *, #33, .F. ) ;
#297 = EDGE_CURVE ( 'NONE', #161, #161, #198, .T. ) ;
#298 = VERTEX_POINT ( 'NONE', #154 ) ;
#299 = ORIENTED_EDGE ( 'NONE', *, *, #123, .T. ) ;
#300 = AXIS2_PLACEMENT_3D ( 'NONE', #243, #94, #216 ) ;
#301 = EDGE_LOOP ( 'NONE', ( #211 ) ) ;
#302 = ADVANCED_FACE ( 'NONE', ( #170, #100 ), #75, .F. ) ;
#303 = PLANE ( 'NONE',  #276 ) ;
#304 = DIRECTION ( 'NONE',  ( -3.491481338843133355E-15, 1.224646799147353207E-16, -1.000000000000000000 ) ) ;
#305 = CARTESIAN_POINT ( 'NONE',  ( 2.762023735831416461E-14, -9.687875142347794459E-16, 7.910750388677674216 ) ) ;
#306 = CALENDAR_DATE ( 2022, 11, 1 ) ;
#307 = ORIENTED_EDGE ( 'NONE', *, *, #222, .F. ) ;
#308 = ADVANCED_FACE ( 'NONE', ( #96 ), #126, .F. ) ;
#309 = DIRECTION ( 'NONE',  ( -3.491481338843133355E-15, 1.224646799147353207E-16, -1.000000000000000000 ) ) ;
#310 = DIRECTION ( 'NONE',  ( 0.0000000000000000000, 1.000000000000000000, 0.0000000000000000000 ) ) ;
#311 = LOCAL_TIME ( 11, 23, 3.000000000000000000, #334 ) ;
#312 = DIRECTION ( 'NONE',  ( -3.491481338843133355E-15, 1.224646799147353207E-16, -1.000000000000000000 ) ) ;
#313 = ADVANCED_FACE ( 'NONE', ( #290, #76 ), #148, .T. ) ;
#314 = CARTESIAN_POINT ( 'NONE',  ( 1.312796983405018142E-13, -4.604671964794046935E-15, 37.59999999999999432 ) ) ;
#315 = CARTESIAN_POINT ( 'NONE',  ( 6.284666409917640040E-15, -2.204364238465235576E-16, 1.800000000000000044 ) ) ;
#316 = PERSON_AND_ORGANIZATION_ROLE ( 'design_owner' ) ;
#317 = VERTEX_POINT ( 'NONE', #322 ) ;
#318 = ORIENTED_EDGE ( 'NONE', *, *, #297, .T. ) ;
#319 = CARTESIAN_POINT ( 'NONE',  ( 1.047444401652940007E-14, 0.5999999999999996447, 3.000000000000000000 ) ) ;
#320 = CIRCLE ( 'NONE', #71, 0.5999999999999996447 ) ;
#321 = CC_DESIGN_SECURITY_CLASSIFICATION ( #278, ( #220 ) ) ;
#322 = CARTESIAN_POINT ( 'NONE',  ( 6.284666409917640040E-15, 0.5999999999999996447, 1.800000000000000044 ) ) ;
#323 = ORIENTED_EDGE ( 'NONE', *, *, #261, .F. ) ;
#324 = DATE_TIME_ROLE ( 'creation_date' ) ;
#325 = ORIENTED_EDGE ( 'NONE', *, *, #261, .T. ) ;
#326 = EDGE_LOOP ( 'NONE', ( #325 ) ) ;
#327 = CC_DESIGN_PERSON_AND_ORGANIZATION_ASSIGNMENT ( #187, #194, ( #278 ) ) ;
#328 = COORDINATED_UNIVERSAL_TIME_OFFSET ( 1, 0, .AHEAD. ) ;
#329 = APPROVAL_PERSON_ORGANIZATION ( #81, #173, #236 ) ;
#330 = DIRECTION ( 'NONE',  ( 3.491481338843133355E-15, -1.224646799147353207E-16, 1.000000000000000000 ) ) ;
#331 = PRODUCT ( '381954', '381954', '', ( #295 ) ) ;
#332 = EDGE_LOOP ( 'NONE', ( #318 ) ) ;
#333 = PLANE ( 'NONE',  #251 ) ;
#334 = COORDINATED_UNIVERSAL_TIME_OFFSET ( 1, 0, .AHEAD. ) ;
#335 = EDGE_LOOP ( 'NONE', ( #307 ) ) ;
#336 =( GEOMETRIC_REPRESENTATION_CONTEXT ( 3 ) GLOBAL_UNCERTAINTY_ASSIGNED_CONTEXT ( ( #3 ) ) GLOBAL_UNIT_ASSIGNED_CONTEXT ( ( #56, #207, #36 ) ) REPRESENTATION_CONTEXT ( 'NONE', 'WORKASPACE' ) );
#337 = ADVANCED_FACE ( 'NONE', ( #99, #146 ), #152, .T. ) ;
#338 = DIRECTION ( 'NONE',  ( 3.491481338843133355E-15, -1.224646799147353207E-16, 1.000000000000000000 ) ) ;
#339 = DIRECTION ( 'NONE',  ( -4.275831445896958607E-31, -1.000000000000000000, -1.224646799147353207E-16 ) ) ;
#340 = CC_DESIGN_PERSON_AND_ORGANIZATION_ASSIGNMENT ( #138, #316, ( #331 ) ) ;
#341 = AXIS2_PLACEMENT_3D ( 'NONE', #93, #330, #43 ) ;
#342 = CARTESIAN_POINT ( 'NONE',  ( 1.431507348925684360E-14, -5.021051876504147385E-16, 4.099999999999999645 ) ) ;
#343 = AXIS2_PLACEMENT_3D ( 'NONE', #31, #1, #201 ) ;
ENDSEC;
END-ISO-10303-21;
