ISO-10303-21;
HEADER;
FILE_DESCRIPTION (( 'STEP AP203' ),
    '1' );
FILE_NAME ('381953.step',
    '2022-01-11T10:23:02',
    ( '' ),
    ( '' ),
    'SwSTEP 2.0',
    'SolidWorks 2019',
    '' );
FILE_SCHEMA (( 'CONFIG_CONTROL_DESIGN' ));
ENDSEC;

DATA;
#1 = CARTESIAN_POINT ( 'NONE',  ( 5.935518276033325915E-15, 0.5499999999999997113, 1.699999999999999956 ) ) ;
#2 = CIRCLE ( 'NONE', #29, 0.5499999999999997113 ) ;
#3 = CARTESIAN_POINT ( 'NONE',  ( 1.326762908760390423E-13, -4.653657836759941941E-15, 38.00000000000000000 ) ) ;
#4 = FACE_BOUND ( 'NONE', #64, .T. ) ;
#5 = ADVANCED_FACE ( 'NONE', ( #91, #171 ), #61, .T. ) ;
#6 = CARTESIAN_POINT ( 'NONE',  ( 3.316907271900976688E-14, -1.999999999999997780, 9.500000000000001776 ) ) ;
#7 = CC_DESIGN_APPROVAL ( #32, ( #294 ) ) ;
#8 = ORIENTED_EDGE ( 'NONE', *, *, #300, .T. ) ;
#9 = DIRECTION ( 'NONE',  ( -4.275831445896958607E-31, -1.000000000000000000, -1.224646799147353207E-16 ) ) ;
#10 = EDGE_LOOP ( 'NONE', ( #141 ) ) ;
#11 = FACE_OUTER_BOUND ( 'NONE', #139, .T. ) ;
#12 = EDGE_LOOP ( 'NONE', ( #41 ) ) ;
#13 = APPROVAL_ROLE ( '' ) ;
#14 = TOROIDAL_SURFACE ( 'NONE', #246, 2.550000000000000266, 2.000000000000000000 ) ;
#15 = ADVANCED_FACE ( 'NONE', ( #190 ), #287, .F. ) ;
#16 = APPROVAL_PERSON_ORGANIZATION ( #314, #44, #142 ) ;
#17 = ORIENTED_EDGE ( 'NONE', *, *, #149, .T. ) ;
#18 = ORIENTED_EDGE ( 'NONE', *, *, #127, .T. ) ;
#19 = CALENDAR_DATE ( 2022, 11, 1 ) ;
#20 = DIRECTION ( 'NONE',  ( 0.0000000000000000000, -1.000000000000000000, 0.0000000000000000000 ) ) ;
#21 = CARTESIAN_POINT ( 'NONE',  ( 1.047444401652940953E-14, -3.757347216304816973E-16, 3.000000000000002665 ) ) ;
#22 = AXIS2_PLACEMENT_3D ( 'NONE', #251, #93, #47 ) ;
#23 = DATE_AND_TIME ( #19, #293 ) ;
#24 = DIRECTION ( 'NONE',  ( 3.491481338843133355E-15, -1.222263747179845960E-16, 1.000000000000000000 ) ) ;
#25 = EDGE_CURVE ( 'NONE', #79, #79, #158, .T. ) ;
#26 = AXIS2_PLACEMENT_3D ( 'NONE', #100, #125, #182 ) ;
#27 = DIRECTION ( 'NONE',  ( 4.275831445896958607E-31, 1.000000000000000000, 1.224646799147353207E-16 ) ) ;
#28 = DIRECTION ( 'NONE',  ( 3.491481338843133355E-15, -1.222263747179845960E-16, 1.000000000000000000 ) ) ;
#29 = AXIS2_PLACEMENT_3D ( 'NONE', #131, #70, #27 ) ;
#30 = VERTEX_POINT ( 'NONE', #6 ) ;
#31 = VERTEX_POINT ( 'NONE', #237 ) ;
#32 = APPROVAL ( #173, 'UNSPECIFIED' ) ;
#33 = PRODUCT ( '381953', '381953', '', ( #45 ) ) ;
#34 = VERTEX_POINT ( 'NONE', #85 ) ;
#35 = CLOSED_SHELL ( 'NONE', ( #15, #5, #298 ) ) ;
#36 =( NAMED_UNIT ( * ) PLANE_ANGLE_UNIT ( ) SI_UNIT ( $, .RADIAN. ) );
#37 = LOCAL_TIME ( 11, 23, 2.000000000000000000, #40 ) ;
#38 = DIRECTION ( 'NONE',  ( -3.491481338843133355E-15, 1.224646799147353207E-16, -1.000000000000000000 ) ) ;
#39 = DIRECTION ( 'NONE',  ( 3.491481338843133355E-15, -1.224646799147353207E-16, 1.000000000000000000 ) ) ;
#40 = COORDINATED_UNIVERSAL_TIME_OFFSET ( 1, 0, .AHEAD. ) ;
#41 = ORIENTED_EDGE ( 'NONE', *, *, #231, .F. ) ;
#42 = CARTESIAN_POINT ( 'NONE',  ( 0.0000000000000000000, 0.0000000000000000000, 0.0000000000000000000 ) ) ;
#43 = ORIENTED_EDGE ( 'NONE', *, *, #111, .T. ) ;
#44 = APPROVAL ( #99, 'UNSPECIFIED' ) ;
#45 = MECHANICAL_CONTEXT ( 'NONE', #213, 'mechanical' ) ;
#46 = DIRECTION ( 'NONE',  ( 3.491481338843133355E-15, -1.222263747179845960E-16, 1.000000000000000000 ) ) ;
#47 = DIRECTION ( 'NONE',  ( 1.000000000000000000, 0.0000000000000000000, 0.0000000000000000000 ) ) ;
#48 = PLANE ( 'NONE',  #319 ) ;
#49 = AXIS2_PLACEMENT_3D ( 'NONE', #3, #69, #228 ) ;
#50 = CARTESIAN_POINT ( 'NONE',  ( 1.047444401652940953E-14, -3.757347216304816973E-16, 3.000000000000002665 ) ) ;
#51 = CONICAL_SURFACE ( 'NONE', #26, 1.999999999999997113, 0.7853981633974433940 ) ;
#52 = CC_DESIGN_APPROVAL ( #44, ( #323 ) ) ;
#53 = FACE_BOUND ( 'NONE', #12, .T. ) ;
#54 = DIRECTION ( 'NONE',  ( 0.0000000000000000000, -1.000000000000000000, 0.0000000000000000000 ) ) ;
#55 = PLANE ( 'NONE',  #87 ) ;
#56 = ADVANCED_FACE ( 'NONE', ( #184, #152 ), #165, .T. ) ;
#57 = VERTEX_POINT ( 'NONE', #114 ) ;
#58 = VERTEX_POINT ( 'NONE', #82 ) ;
#59 = AXIS2_PLACEMENT_3D ( 'NONE', #252, #255, #54 ) ;
#60 =( GEOMETRIC_REPRESENTATION_CONTEXT ( 3 ) GLOBAL_UNCERTAINTY_ASSIGNED_CONTEXT ( ( #74 ) ) GLOBAL_UNIT_ASSIGNED_CONTEXT ( ( #261, #36, #189 ) ) REPRESENTATION_CONTEXT ( 'NONE', 'WORKASPACE' ) );
#61 = CYLINDRICAL_SURFACE ( 'NONE', #218, 0.5499999999999998224 ) ;
#62 = ADVANCED_FACE ( 'NONE', ( #53, #204 ), #51, .T. ) ;
#63 = PERSON_AND_ORGANIZATION_ROLE ( 'design_supplier' ) ;
#64 = EDGE_LOOP ( 'NONE', ( #116 ) ) ;
#65 = EDGE_LOOP ( 'NONE', ( #94 ) ) ;
#66 = AXIS2_PLACEMENT_3D ( 'NONE', #77, #250, #281 ) ;
#67 = ORIENTED_EDGE ( 'NONE', *, *, #127, .F. ) ;
#68 = CALENDAR_DATE ( 2022, 11, 1 ) ;
#69 = DIRECTION ( 'NONE',  ( 3.491481338843133355E-15, -1.222263747179845960E-16, 1.000000000000000000 ) ) ;
#70 = DIRECTION ( 'NONE',  ( -3.491481338843133355E-15, 1.224646799147353207E-16, -1.000000000000000000 ) ) ;
#71 = FACE_OUTER_BOUND ( 'NONE', #65, .T. ) ;
#72 = AXIS2_PLACEMENT_3D ( 'NONE', #21, #256, #277 ) ;
#73 = ADVANCED_FACE ( 'NONE', ( #280 ), #48, .F. ) ;
#74 = UNCERTAINTY_MEASURE_WITH_UNIT (LENGTH_MEASURE( 1.000000000000000082E-05 ), #261, 'distance_accuracy_value', 'NONE');
#75 = LOCAL_TIME ( 11, 23, 2.000000000000000000, #176 ) ;
#76 = CARTESIAN_POINT ( 'NONE',  ( 1.312796983405018142E-13, -4.604767286872747678E-15, 37.59999999999999432 ) ) ;
#77 = CARTESIAN_POINT ( 'NONE',  ( 1.047444401652940953E-14, -3.757347216304816973E-16, 3.000000000000002665 ) ) ;
#78 = CC_DESIGN_PERSON_AND_ORGANIZATION_ASSIGNMENT ( #197, #63, ( #294 ) ) ;
#79 = VERTEX_POINT ( 'NONE', #163 ) ;
#80 = ADVANCED_BREP_SHAPE_REPRESENTATION ( '381953', ( #98, #103, #22 ), #60 ) ;
#81 = AXIS2_PLACEMENT_3D ( 'NONE', #296, #46, #318 ) ;
#82 = CARTESIAN_POINT ( 'NONE',  ( 1.047444401652940953E-14, -0.5656865167015574514, 3.000000000000002665 ) ) ;
#83 = VERTEX_POINT ( 'NONE', #110 ) ;
#84 = ORIENTED_EDGE ( 'NONE', *, *, #111, .F. ) ;
#85 = CARTESIAN_POINT ( 'NONE',  ( 1.326762908760390423E-13, -1.600000000000000977, 38.00000000000000000 ) ) ;
#86 = EDGE_LOOP ( 'NONE', ( #84 ) ) ;
#87 = AXIS2_PLACEMENT_3D ( 'NONE', #140, #136, #132 ) ;
#88 = DIRECTION ( 'NONE',  ( 3.491481338843133355E-15, -1.222263747179845960E-16, 1.000000000000000000 ) ) ;
#89 = EDGE_LOOP ( 'NONE', ( #8 ) ) ;
#90 = SHAPE_DEFINITION_REPRESENTATION ( #135, #80 ) ;
#91 = FACE_OUTER_BOUND ( 'NONE', #86, .T. ) ;
#92 = CC_DESIGN_DATE_AND_TIME_ASSIGNMENT ( #221, #120, ( #153 ) ) ;
#93 = DIRECTION ( 'NONE',  ( 0.0000000000000000000, 0.0000000000000000000, 1.000000000000000000 ) ) ;
#94 = ORIENTED_EDGE ( 'NONE', *, *, #268, .T. ) ;
#95 = PERSON_AND_ORGANIZATION ( #159, #306 ) ;
#96 = AXIS2_PLACEMENT_3D ( 'NONE', #117, #157, #216 ) ;
#97 = CYLINDRICAL_SURFACE ( 'NONE', #226, 1.999999999999996669 ) ;
#98 = MANIFOLD_SOLID_BREP ( 'Corps-Déplacer/Copier4[1]', #262 ) ;
#99 = APPROVAL_STATUS ( 'not_yet_approved' ) ;
#100 = CARTESIAN_POINT ( 'NONE',  ( 1.312796983405018142E-13, -4.604767286872747678E-15, 37.59999999999999432 ) ) ;
#101 = APPLICATION_PROTOCOL_DEFINITION ( 'international standard', 'config_control_design', 1994, #279 ) ;
#102 = FACE_OUTER_BOUND ( 'NONE', #286, .T. ) ;
#103 = MANIFOLD_SOLID_BREP ( 'Corps-Déplacer/Copier4[2]', #35 ) ;
#104 = AXIS2_PLACEMENT_3D ( 'NONE', #1, #148, #177 ) ;
#105 = AXIS2_PLACEMENT_3D ( 'NONE', #257, #88, #259 ) ;
#106 = ADVANCED_FACE ( 'NONE', ( #233, #272 ), #14, .F. ) ;
#107 = PLANE ( 'NONE',  #104 ) ;
#108 = AXIS2_PLACEMENT_3D ( 'NONE', #202, #28, #179 ) ;
#109 = DIRECTION ( 'NONE',  ( 3.491481338843133355E-15, -1.222263747179845960E-16, 1.000000000000000000 ) ) ;
#110 = CARTESIAN_POINT ( 'NONE',  ( 5.935518276033325915E-15, 0.5499999999999997113, 1.699999999999999956 ) ) ;
#111 = EDGE_CURVE ( 'NONE', #310, #310, #2, .T. ) ;
#112 = DIRECTION ( 'NONE',  ( 3.491481338843133355E-15, -1.222263747179845960E-16, 1.000000000000000000 ) ) ;
#113 = CIRCLE ( 'NONE', #72, 0.8349999999999998535 ) ;
#114 = CARTESIAN_POINT ( 'NONE',  ( 2.789689482689513687E-14, -1.960000000000000853, 7.989988236952308753 ) ) ;
#115 = CARTESIAN_POINT ( 'NONE',  ( 5.935518276033326704E-15, -0.5500000000000001554, 1.700000000000000178 ) ) ;
#116 = ORIENTED_EDGE ( 'NONE', *, *, #25, .T. ) ;
#117 = CARTESIAN_POINT ( 'NONE',  ( 1.326762908760390423E-13, -4.653657836759941941E-15, 38.00000000000000000 ) ) ;
#118 = DIRECTION ( 'NONE',  ( -4.275831445896958607E-31, -1.000000000000000000, -1.224646799147353207E-16 ) ) ;
#119 = AXIS2_PLACEMENT_3D ( 'NONE', #212, #186, #138 ) ;
#120 = DATE_TIME_ROLE ( 'creation_date' ) ;
#121 = EDGE_LOOP ( 'NONE', ( #145 ) ) ;
#122 = PRODUCT_RELATED_PRODUCT_CATEGORY ( 'detail', '', ( #33 ) ) ;
#123 = APPROVAL_DATE_TIME ( #321, #32 ) ;
#124 = PERSON_AND_ORGANIZATION_ROLE ( 'creator' ) ;
#125 = DIRECTION ( 'NONE',  ( -3.491481338843133355E-15, 1.222263747179845960E-16, -1.000000000000000000 ) ) ;
#126 = CALENDAR_DATE ( 2022, 11, 1 ) ;
#127 = EDGE_CURVE ( 'NONE', #58, #58, #238, .T. ) ;
#128 = DIRECTION ( 'NONE',  ( 0.0000000000000000000, -1.000000000000000000, 0.0000000000000000000 ) ) ;
#129 = AXIS2_PLACEMENT_3D ( 'NONE', #50, #109, #208 ) ;
#130 = CARTESIAN_POINT ( 'NONE',  ( 9.601573681818626193E-15, -3.451781279509849382E-16, 2.750000000000002665 ) ) ;
#131 = CARTESIAN_POINT ( 'NONE',  ( -2.137988955472277843E-31, 7.499055778425150378E-33, -6.123443742021198339E-17 ) ) ;
#132 = DIRECTION ( 'NONE',  ( -4.267511064422913880E-31, -1.000000000000000000, -1.222263747179845960E-16 ) ) ;
#133 = ADVANCED_FACE ( 'NONE', ( #225, #71 ), #97, .T. ) ;
#134 = VERTEX_POINT ( 'NONE', #307 ) ;
#135 = PRODUCT_DEFINITION_SHAPE ( 'NONE', 'NONE',  #153 ) ;
#136 = DIRECTION ( 'NONE',  ( 3.491481338843133355E-15, -1.222263747179845960E-16, 1.000000000000000000 ) ) ;
#137 = EDGE_CURVE ( 'NONE', #31, #31, #113, .T. ) ;
#138 = DIRECTION ( 'NONE',  ( 0.0000000000000000000, -1.000000000000000000, 0.0000000000000000000 ) ) ;
#139 = EDGE_LOOP ( 'NONE', ( #146 ) ) ;
#140 = CARTESIAN_POINT ( 'NONE',  ( 3.316907271900976056E-14, 1.999999999999995337, 9.500000000000000000 ) ) ;
#141 = ORIENTED_EDGE ( 'NONE', *, *, #137, .F. ) ;
#142 = APPROVAL_ROLE ( '' ) ;
#143 = EDGE_LOOP ( 'NONE', ( #43 ) ) ;
#144 = CC_DESIGN_APPROVAL ( #282, ( #153 ) ) ;
#145 = ORIENTED_EDGE ( 'NONE', *, *, #25, .F. ) ;
#146 = ORIENTED_EDGE ( 'NONE', *, *, #183, .F. ) ;
#147 = PERSON_AND_ORGANIZATION ( #159, #306 ) ;
#148 = DIRECTION ( 'NONE',  ( 3.491481338843133355E-15, -1.222263747179845960E-16, 1.000000000000000000 ) ) ;
#149 = EDGE_CURVE ( 'NONE', #57, #57, #172, .T. ) ;
#150 = PERSON_AND_ORGANIZATION ( #159, #306 ) ;
#151 = CIRCLE ( 'NONE', #234, 1.999999999999997113 ) ;
#152 = FACE_BOUND ( 'NONE', #245, .T. ) ;
#153 = PRODUCT_DEFINITION ( 'UNKNOWN', '', #294, #154 ) ;
#154 = DESIGN_CONTEXT ( 'detailed design', #279, 'design' ) ;
#155 = CARTESIAN_POINT ( 'NONE',  ( 1.326762908760390423E-13, -4.653657836759941941E-15, 38.00000000000000000 ) ) ;
#156 = FACE_OUTER_BOUND ( 'NONE', #215, .T. ) ;
#157 = DIRECTION ( 'NONE',  ( 3.491481338843133355E-15, -1.222263747179845960E-16, 1.000000000000000000 ) ) ;
#158 = CIRCLE ( 'NONE', #81, 1.959999999999999964 ) ;
#159 = PERSON ( 'UNSPECIFIED', 'UNSPECIFIED', 'UNSPECIFIED', ('UNSPECIFIED'), ('UNSPECIFIED'), ('UNSPECIFIED') ) ;
#160 = CIRCLE ( 'NONE', #105, 0.5499999999999999334 ) ;
#161 = CARTESIAN_POINT ( 'NONE',  ( 1.047444401652940007E-14, 0.5656865167015566742, 3.000000000000000000 ) ) ;
#162 = VERTEX_POINT ( 'NONE', #192 ) ;
#163 = CARTESIAN_POINT ( 'NONE',  ( 3.316907271900976688E-14, -1.960000000000001297, 9.500000000000001776 ) ) ;
#164 = ORIENTED_EDGE ( 'NONE', *, *, #268, .F. ) ;
#165 = CONICAL_SURFACE ( 'NONE', #129, 0.8349999999999997424, 0.2217440814658728776 ) ;
#166 = AXIS2_PLACEMENT_3D ( 'NONE', #260, #38, #305 ) ;
#167 = CARTESIAN_POINT ( 'NONE',  ( -1.068994477736138921E-31, 3.749527889212575189E-33, -3.061721871010599170E-17 ) ) ;
#168 = DATE_TIME_ROLE ( 'classification_date' ) ;
#169 = EDGE_LOOP ( 'NONE', ( #17 ) ) ;
#170 = PERSON_AND_ORGANIZATION ( #159, #306 ) ;
#171 = FACE_OUTER_BOUND ( 'NONE', #89, .T. ) ;
#172 = CIRCLE ( 'NONE', #59, 1.959999999999999964 ) ;
#173 = APPROVAL_STATUS ( 'not_yet_approved' ) ;
#174 = APPROVAL_PERSON_ORGANIZATION ( #150, #282, #13 ) ;
#175 = EDGE_LOOP ( 'NONE', ( #313 ) ) ;
#176 = COORDINATED_UNIVERSAL_TIME_OFFSET ( 1, 0, .AHEAD. ) ;
#177 = DIRECTION ( 'NONE',  ( -4.267511064422913880E-31, -1.000000000000000000, -1.222263747179845960E-16 ) ) ;
#178 = PERSON_AND_ORGANIZATION ( #159, #306 ) ;
#179 = DIRECTION ( 'NONE',  ( 0.0000000000000000000, -1.000000000000000000, 0.0000000000000000000 ) ) ;
#180 = DIRECTION ( 'NONE',  ( 4.267511064422913880E-31, 1.000000000000000000, 1.222263747179845960E-16 ) ) ;
#181 = AXIS2_PLACEMENT_3D ( 'NONE', #130, #248, #128 ) ;
#182 = DIRECTION ( 'NONE',  ( 0.0000000000000000000, 1.000000000000000000, 0.0000000000000000000 ) ) ;
#183 = EDGE_CURVE ( 'NONE', #162, #162, #191, .T. ) ;
#184 = FACE_OUTER_BOUND ( 'NONE', #175, .T. ) ;
#185 = FACE_OUTER_BOUND ( 'NONE', #10, .T. ) ;
#186 = DIRECTION ( 'NONE',  ( 3.491481338843133355E-15, -1.222263747179845960E-16, 1.000000000000000000 ) ) ;
#187 = ADVANCED_FACE ( 'NONE', ( #156 ), #107, .F. ) ;
#188 = EDGE_LOOP ( 'NONE', ( #315 ) ) ;
#189 =( NAMED_UNIT ( * ) SI_UNIT ( $, .STERADIAN. ) SOLID_ANGLE_UNIT ( ) );
#190 = FACE_OUTER_BOUND ( 'NONE', #143, .T. ) ;
#191 = CIRCLE ( 'NONE', #181, 0.5500000000000000444 ) ;
#192 = CARTESIAN_POINT ( 'NONE',  ( 9.601573681818626193E-15, -0.5500000000000003775, 2.750000000000002665 ) ) ;
#193 = EDGE_LOOP ( 'NONE', ( #198 ) ) ;
#194 = ADVANCED_FACE ( 'NONE', ( #205, #200 ), #302, .T. ) ;
#195 = PERSON_AND_ORGANIZATION_ROLE ( 'creator' ) ;
#196 = DIRECTION ( 'NONE',  ( -3.491481338843133355E-15, 1.224646799147353207E-16, -1.000000000000000000 ) ) ;
#197 = PERSON_AND_ORGANIZATION ( #159, #306 ) ;
#198 = ORIENTED_EDGE ( 'NONE', *, *, #308, .T. ) ;
#199 = PERSON_AND_ORGANIZATION_ROLE ( 'classification_officer' ) ;
#200 = FACE_OUTER_BOUND ( 'NONE', #169, .T. ) ;
#201 = COORDINATED_UNIVERSAL_TIME_OFFSET ( 1, 0, .AHEAD. ) ;
#202 = CARTESIAN_POINT ( 'NONE',  ( 1.326762908760390423E-13, -4.653657836759941941E-15, 38.00000000000000000 ) ) ;
#203 = COORDINATED_UNIVERSAL_TIME_OFFSET ( 1, 0, .AHEAD. ) ;
#204 = FACE_OUTER_BOUND ( 'NONE', #220, .T. ) ;
#205 = FACE_OUTER_BOUND ( 'NONE', #121, .T. ) ;
#206 = CIRCLE ( 'NONE', #108, 1.599999999999996314 ) ;
#207 = CC_DESIGN_SECURITY_CLASSIFICATION ( #323, ( #294 ) ) ;
#208 = DIRECTION ( 'NONE',  ( 0.0000000000000000000, -1.000000000000000000, 0.0000000000000000000 ) ) ;
#209 = FACE_OUTER_BOUND ( 'NONE', #311, .T. ) ;
#210 = CC_DESIGN_PERSON_AND_ORGANIZATION_ASSIGNMENT ( #178, #295, ( #33 ) ) ;
#211 = DIRECTION ( 'NONE',  ( 3.491481338843133355E-15, -1.224646799147353207E-16, 1.000000000000000000 ) ) ;
#212 = CARTESIAN_POINT ( 'NONE',  ( 3.316907271900976688E-14, -1.170206157297381115E-15, 9.500000000000001776 ) ) ;
#213 = APPLICATION_CONTEXT ( 'configuration controlled 3d designs of mechanical parts and assemblies' ) ;
#214 = ORIENTED_EDGE ( 'NONE', *, *, #308, .F. ) ;
#215 = EDGE_LOOP ( 'NONE', ( #214 ) ) ;
#216 = DIRECTION ( 'NONE',  ( 0.0000000000000000000, -1.000000000000000000, 0.0000000000000000000 ) ) ;
#217 = CC_DESIGN_PERSON_AND_ORGANIZATION_ASSIGNMENT ( #95, #195, ( #153 ) ) ;
#218 = AXIS2_PLACEMENT_3D ( 'NONE', #42, #196, #265 ) ;
#219 = APPROVAL_ROLE ( '' ) ;
#220 = EDGE_LOOP ( 'NONE', ( #292 ) ) ;
#221 = DATE_AND_TIME ( #126, #37 ) ;
#222 = ORIENTED_EDGE ( 'NONE', *, *, #300, .F. ) ;
#223 = CC_DESIGN_PERSON_AND_ORGANIZATION_ASSIGNMENT ( #147, #124, ( #294 ) ) ;
#224 = APPLICATION_PROTOCOL_DEFINITION ( 'international standard', 'config_control_design', 1994, #213 ) ;
#225 = FACE_OUTER_BOUND ( 'NONE', #264, .T. ) ;
#226 = AXIS2_PLACEMENT_3D ( 'NONE', #155, #322, #20 ) ;
#227 = APPROVAL_PERSON_ORGANIZATION ( #316, #32, #219 ) ;
#228 = DIRECTION ( 'NONE',  ( 0.0000000000000000000, -1.000000000000000000, 0.0000000000000000000 ) ) ;
#229 = APPROVAL_DATE_TIME ( #23, #282 ) ;
#230 = DIRECTION ( 'NONE',  ( 0.0000000000000000000, -1.000000000000000000, 0.0000000000000000000 ) ) ;
#231 = EDGE_CURVE ( 'NONE', #34, #34, #206, .T. ) ;
#232 = DIRECTION ( 'NONE',  ( 3.491481338843133355E-15, -1.222263747179845960E-16, 1.000000000000000000 ) ) ;
#233 = FACE_OUTER_BOUND ( 'NONE', #309, .T. ) ;
#234 = AXIS2_PLACEMENT_3D ( 'NONE', #76, #24, #230 ) ;
#235 = VERTEX_POINT ( 'NONE', #115 ) ;
#236 = PLANE ( 'NONE',  #275 ) ;
#237 = CARTESIAN_POINT ( 'NONE',  ( 1.047444401652940953E-14, -0.8350000000000000755, 3.000000000000002665 ) ) ;
#238 = CIRCLE ( 'NONE', #66, 0.5656865167015571183 ) ;
#239 = CARTESIAN_POINT ( 'NONE',  ( 5.935518276033325915E-15, 4.124339402320104316E-33, 1.699999999999999956 ) ) ;
#240 = EDGE_LOOP ( 'NONE', ( #18 ) ) ;
#241 = CYLINDRICAL_SURFACE ( 'NONE', #96, 0.5499999999999999334 ) ;
#242 = EDGE_CURVE ( 'NONE', #134, #134, #151, .T. ) ;
#243 = EDGE_LOOP ( 'NONE', ( #317 ) ) ;
#244 = APPROVAL_DATE_TIME ( #267, #44 ) ;
#245 = EDGE_LOOP ( 'NONE', ( #270 ) ) ;
#246 = AXIS2_PLACEMENT_3D ( 'NONE', #297, #232, #274 ) ;
#247 = ADVANCED_FACE ( 'NONE', ( #102, #4 ), #55, .F. ) ;
#248 = DIRECTION ( 'NONE',  ( 3.491481338843133355E-15, -1.222263747179845960E-16, 1.000000000000000000 ) ) ;
#249 = CALENDAR_DATE ( 2022, 11, 1 ) ;
#250 = DIRECTION ( 'NONE',  ( 3.491481338843133355E-15, -1.222263747179845960E-16, 1.000000000000000000 ) ) ;
#251 = CARTESIAN_POINT ( 'NONE',  ( 0.0000000000000000000, 0.0000000000000000000, 0.0000000000000000000 ) ) ;
#252 = CARTESIAN_POINT ( 'NONE',  ( 2.789689482689513687E-14, -9.856428937185491509E-16, 7.989988236952308753 ) ) ;
#253 = ADVANCED_FACE ( 'NONE', ( #185, #283 ), #236, .F. ) ;
#254 = AXIS2_PLACEMENT_3D ( 'NONE', #167, #39, #118 ) ;
#255 = DIRECTION ( 'NONE',  ( 3.491481338843133355E-15, -1.222263747179845960E-16, 1.000000000000000000 ) ) ;
#256 = DIRECTION ( 'NONE',  ( 3.491481338843133355E-15, -1.222263747179845960E-16, 1.000000000000000000 ) ) ;
#257 = CARTESIAN_POINT ( 'NONE',  ( 5.935518276033326704E-15, -2.168404344971008868E-16, 1.700000000000000178 ) ) ;
#258 = CIRCLE ( 'NONE', #119, 1.999999999999996669 ) ;
#259 = DIRECTION ( 'NONE',  ( 0.0000000000000000000, -1.000000000000000000, 0.0000000000000000000 ) ) ;
#260 = CARTESIAN_POINT ( 'NONE',  ( 5.935518276033325915E-15, -2.081899558550500280E-16, 1.699999999999999956 ) ) ;
#261 =( LENGTH_UNIT ( ) NAMED_UNIT ( * ) SI_UNIT ( .MILLI., .METRE. ) );
#262 = CLOSED_SHELL ( 'NONE', ( #276, #106, #253, #56, #194, #247, #133, #62, #73, #187 ) ) ;
#263 = LOCAL_TIME ( 11, 23, 2.000000000000000000, #203 ) ;
#264 = EDGE_LOOP ( 'NONE', ( #291 ) ) ;
#265 = DIRECTION ( 'NONE',  ( 4.275831445896958607E-31, 1.000000000000000000, 1.224646799147353207E-16 ) ) ;
#266 = SECURITY_CLASSIFICATION_LEVEL ( 'unclassified' ) ;
#267 = DATE_AND_TIME ( #271, #278 ) ;
#268 = EDGE_CURVE ( 'NONE', #30, #30, #258, .T. ) ;
#269 = COORDINATED_UNIVERSAL_TIME_OFFSET ( 1, 0, .AHEAD. ) ;
#270 = ORIENTED_EDGE ( 'NONE', *, *, #137, .T. ) ;
#271 = CALENDAR_DATE ( 2022, 11, 1 ) ;
#272 = FACE_OUTER_BOUND ( 'NONE', #188, .T. ) ;
#273 = DATE_AND_TIME ( #68, #263 ) ;
#274 = DIRECTION ( 'NONE',  ( -4.325874348825681975E-31, -1.000000000000000000, -1.222263747179845960E-16 ) ) ;
#275 = AXIS2_PLACEMENT_3D ( 'NONE', #161, #112, #285 ) ;
#276 = ADVANCED_FACE ( 'NONE', ( #11, #284 ), #241, .T. ) ;
#277 = DIRECTION ( 'NONE',  ( 0.0000000000000000000, -1.000000000000000000, 0.0000000000000000000 ) ) ;
#278 = LOCAL_TIME ( 11, 23, 2.000000000000000000, #201 ) ;
#279 = APPLICATION_CONTEXT ( 'configuration controlled 3d designs of mechanical parts and assemblies' ) ;
#280 = FACE_OUTER_BOUND ( 'NONE', #243, .T. ) ;
#281 = DIRECTION ( 'NONE',  ( 0.0000000000000000000, -1.000000000000000000, 0.0000000000000000000 ) ) ;
#282 = APPROVAL ( #290, 'UNSPECIFIED' ) ;
#283 = FACE_BOUND ( 'NONE', #240, .T. ) ;
#284 = FACE_OUTER_BOUND ( 'NONE', #193, .T. ) ;
#285 = DIRECTION ( 'NONE',  ( -4.267511064422913880E-31, -1.000000000000000000, -1.222263747179845960E-16 ) ) ;
#286 = EDGE_LOOP ( 'NONE', ( #164 ) ) ;
#287 = PLANE ( 'NONE',  #254 ) ;
#288 = CARTESIAN_POINT ( 'NONE',  ( 2.137183397710479182E-32, 0.5499999999999997113, 6.121136532892404794E-18 ) ) ;
#289 = CC_DESIGN_PERSON_AND_ORGANIZATION_ASSIGNMENT ( #170, #199, ( #323 ) ) ;
#290 = APPROVAL_STATUS ( 'not_yet_approved' ) ;
#291 = ORIENTED_EDGE ( 'NONE', *, *, #242, .F. ) ;
#292 = ORIENTED_EDGE ( 'NONE', *, *, #242, .T. ) ;
#293 = LOCAL_TIME ( 11, 23, 2.000000000000000000, #269 ) ;
#294 = PRODUCT_DEFINITION_FORMATION_WITH_SPECIFIED_SOURCE ( 'ANY', '', #33, .NOT_KNOWN. ) ;
#295 = PERSON_AND_ORGANIZATION_ROLE ( 'design_owner' ) ;
#296 = CARTESIAN_POINT ( 'NONE',  ( 3.316907271900976688E-14, -1.170206157297381115E-15, 9.500000000000001776 ) ) ;
#297 = CARTESIAN_POINT ( 'NONE',  ( 9.601573681818616727E-15, -4.336808689942017736E-16, 2.750000000000000000 ) ) ;
#298 = ADVANCED_FACE ( 'NONE', ( #209 ), #312, .T. ) ;
#299 = CARTESIAN_POINT ( 'NONE',  ( 1.326762908760390423E-13, -4.653657836759941941E-15, 38.00000000000000000 ) ) ;
#300 = EDGE_CURVE ( 'NONE', #83, #83, #301, .T. ) ;
#301 = CIRCLE ( 'NONE', #166, 0.5499999999999999334 ) ;
#302 = CYLINDRICAL_SURFACE ( 'NONE', #49, 1.959999999999999964 ) ;
#303 = DIRECTION ( 'NONE',  ( -3.491481338843133355E-15, 1.222263747179845960E-16, -1.000000000000000000 ) ) ;
#304 = CC_DESIGN_DATE_AND_TIME_ASSIGNMENT ( #273, #168, ( #323 ) ) ;
#305 = DIRECTION ( 'NONE',  ( 0.0000000000000000000, 1.000000000000000000, 0.0000000000000000000 ) ) ;
#306 = ORGANIZATION ( 'UNSPECIFIED', 'UNSPECIFIED', '' ) ;
#307 = CARTESIAN_POINT ( 'NONE',  ( 1.312796983405018142E-13, -2.000000000000001776, 37.59999999999999432 ) ) ;
#308 = EDGE_CURVE ( 'NONE', #235, #235, #160, .T. ) ;
#309 = EDGE_LOOP ( 'NONE', ( #67 ) ) ;
#310 = VERTEX_POINT ( 'NONE', #288 ) ;
#311 = EDGE_LOOP ( 'NONE', ( #222 ) ) ;
#312 = PLANE ( 'NONE',  #320 ) ;
#313 = ORIENTED_EDGE ( 'NONE', *, *, #149, .F. ) ;
#314 = PERSON_AND_ORGANIZATION ( #159, #306 ) ;
#315 = ORIENTED_EDGE ( 'NONE', *, *, #183, .T. ) ;
#316 = PERSON_AND_ORGANIZATION ( #159, #306 ) ;
#317 = ORIENTED_EDGE ( 'NONE', *, *, #231, .T. ) ;
#318 = DIRECTION ( 'NONE',  ( 0.0000000000000000000, -1.000000000000000000, 0.0000000000000000000 ) ) ;
#319 = AXIS2_PLACEMENT_3D ( 'NONE', #299, #303, #180 ) ;
#320 = AXIS2_PLACEMENT_3D ( 'NONE', #239, #211, #9 ) ;
#321 = DATE_AND_TIME ( #249, #75 ) ;
#322 = DIRECTION ( 'NONE',  ( 3.491481338843133355E-15, -1.222263747179845960E-16, 1.000000000000000000 ) ) ;
#323 = SECURITY_CLASSIFICATION ( '', '', #266 ) ;
ENDSEC;
END-ISO-10303-21;
