ISO-10303-21;
HEADER;
FILE_DESCRIPTION (( 'STEP AP203' ),
    '1' );
FILE_NAME ('381951.step',
    '2022-01-11T10:23:02',
    ( '' ),
    ( '' ),
    'SwSTEP 2.0',
    'SolidWorks 2019',
    '' );
FILE_SCHEMA (( 'CONFIG_CONTROL_DESIGN' ));
ENDSEC;

DATA;
#1 = ORIENTED_EDGE ( 'NONE', *, *, #249, .F. ) ;
#2 = EDGE_LOOP ( 'NONE', ( #308 ) ) ;
#3 = APPROVAL ( #109, 'UNSPECIFIED' ) ;
#4 = DIRECTION ( 'NONE',  ( 0.0000000000000000000, 1.000000000000000000, 0.0000000000000000000 ) ) ;
#5 = AXIS2_PLACEMENT_3D ( 'NONE', #327, #221, #186 ) ;
#6 = FACE_OUTER_BOUND ( 'NONE', #203, .T. ) ;
#7 = CARTESIAN_POINT ( 'NONE',  ( 1.047444401652940007E-14, -3.673940397442059868E-16, 3.000000000000000000 ) ) ;
#8 = ADVANCED_FACE ( 'NONE', ( #151, #19 ), #73, .T. ) ;
#9 = DIRECTION ( 'NONE',  ( -3.491481338843133355E-15, 1.224646799147353207E-16, -1.000000000000000000 ) ) ;
#10 = CIRCLE ( 'NONE', #244, 1.999999999999997113 ) ;
#11 = VERTEX_POINT ( 'NONE', #226 ) ;
#12 = CARTESIAN_POINT ( 'NONE',  ( 5.237222008264700033E-15, 3.749399456654640598E-33, 1.500000000000000000 ) ) ;
#13 = VERTEX_POINT ( 'NONE', #224 ) ;
#14 = AXIS2_PLACEMENT_3D ( 'NONE', #148, #66, #250 ) ;
#15 = FACE_BOUND ( 'NONE', #55, .T. ) ;
#16 =( NAMED_UNIT ( * ) PLANE_ANGLE_UNIT ( ) SI_UNIT ( $, .RADIAN. ) );
#17 = APPROVAL_STATUS ( 'not_yet_approved' ) ;
#18 = PRODUCT_DEFINITION_FORMATION_WITH_SPECIFIED_SOURCE ( 'ANY', '', #95, .NOT_KNOWN. ) ;
#19 = FACE_OUTER_BOUND ( 'NONE', #157, .T. ) ;
#20 = ADVANCED_FACE ( 'NONE', ( #207 ), #229, .F. ) ;
#21 = PERSON_AND_ORGANIZATION ( #210, #332 ) ;
#22 = EDGE_LOOP ( 'NONE', ( #252 ) ) ;
#23 = ORIENTED_EDGE ( 'NONE', *, *, #128, .T. ) ;
#24 = DESIGN_CONTEXT ( 'detailed design', #303, 'design' ) ;
#25 = EDGE_LOOP ( 'NONE', ( #179 ) ) ;
#26 = EDGE_LOOP ( 'NONE', ( #261 ) ) ;
#27 = CALENDAR_DATE ( 2022, 11, 1 ) ;
#28 = FACE_OUTER_BOUND ( 'NONE', #183, .T. ) ;
#29 = APPROVAL_ROLE ( '' ) ;
#30 = FACE_OUTER_BOUND ( 'NONE', #71, .T. ) ;
#31 = AXIS2_PLACEMENT_3D ( 'NONE', #312, #155, #99 ) ;
#32 = SECURITY_CLASSIFICATION ( '', '', #309 ) ;
#33 = PRODUCT_RELATED_PRODUCT_CATEGORY ( 'detail', '', ( #95 ) ) ;
#34 = DIRECTION ( 'NONE',  ( 0.0000000000000000000, 1.000000000000000000, 0.0000000000000000000 ) ) ;
#35 = DIRECTION ( 'NONE',  ( -4.275831445896958607E-31, -1.000000000000000000, -1.224646799147353207E-16 ) ) ;
#36 = FACE_OUTER_BOUND ( 'NONE', #288, .T. ) ;
#37 = AXIS2_PLACEMENT_3D ( 'NONE', #108, #295, #242 ) ;
#38 = LOCAL_TIME ( 11, 23, 2.000000000000000000, #262 ) ;
#39 = VERTEX_POINT ( 'NONE', #170 ) ;
#40 = CARTESIAN_POINT ( 'NONE',  ( 1.312796983405018142E-13, 1.999999999999992228, 37.59999999999999432 ) ) ;
#41 = CARTESIAN_POINT ( 'NONE',  ( 1.047444401652940007E-14, -3.673940397442059868E-16, 3.000000000000000000 ) ) ;
#42 = AXIS2_PLACEMENT_3D ( 'NONE', #276, #120, #90 ) ;
#43 = EDGE_CURVE ( 'NONE', #223, #223, #298, .T. ) ;
#44 =( LENGTH_UNIT ( ) NAMED_UNIT ( * ) SI_UNIT ( .MILLI., .METRE. ) );
#45 = FACE_OUTER_BOUND ( 'NONE', #234, .T. ) ;
#46 = COORDINATED_UNIVERSAL_TIME_OFFSET ( 1, 0, .AHEAD. ) ;
#47 = EDGE_LOOP ( 'NONE', ( #315 ) ) ;
#48 = AXIS2_PLACEMENT_3D ( 'NONE', #343, #254, #256 ) ;
#49 = COORDINATED_UNIVERSAL_TIME_OFFSET ( 1, 0, .AHEAD. ) ;
#50 = EDGE_LOOP ( 'NONE', ( #23 ) ) ;
#51 = EDGE_CURVE ( 'NONE', #65, #65, #212, .T. ) ;
#52 = DATE_TIME_ROLE ( 'creation_date' ) ;
#53 = EDGE_LOOP ( 'NONE', ( #125 ) ) ;
#54 = CIRCLE ( 'NONE', #225, 0.5000000000000000000 ) ;
#55 = EDGE_LOOP ( 'NONE', ( #205 ) ) ;
#56 = PRODUCT_DEFINITION_SHAPE ( 'NONE', 'NONE',  #180 ) ;
#57 = CARTESIAN_POINT ( 'NONE',  ( 1.047444401652940007E-14, -3.673940397442059868E-16, 3.000000000000000000 ) ) ;
#58 = CYLINDRICAL_SURFACE ( 'NONE', #208, 1.999999999999996669 ) ;
#59 = ADVANCED_FACE ( 'NONE', ( #127, #341 ), #277, .F. ) ;
#60 = PERSON_AND_ORGANIZATION_ROLE ( 'creator' ) ;
#61 = FACE_OUTER_BOUND ( 'NONE', #2, .T. ) ;
#62 = CARTESIAN_POINT ( 'NONE',  ( 1.047444401652940007E-14, 1.047977647748402309E-32, 3.000000000000000000 ) ) ;
#63 = CARTESIAN_POINT ( 'NONE',  ( 1.026447565081798476E-14, -3.600293408661107753E-16, 2.939862669928808625 ) ) ;
#64 = AXIS2_PLACEMENT_3D ( 'NONE', #63, #241, #4 ) ;
#65 = VERTEX_POINT ( 'NONE', #273 ) ;
#66 = DIRECTION ( 'NONE',  ( 3.491481338843133355E-15, -1.224646799147353207E-16, 1.000000000000000000 ) ) ;
#67 = ADVANCED_FACE ( 'NONE', ( #137, #61 ), #113, .T. ) ;
#68 = CIRCLE ( 'NONE', #64, 0.5489692899384945868 ) ;
#69 = CARTESIAN_POINT ( 'NONE',  ( 8.728703347107833388E-15, -3.061616997868383141E-16, 2.500000000000000000 ) ) ;
#70 = COORDINATED_UNIVERSAL_TIME_OFFSET ( 1, 0, .AHEAD. ) ;
#71 = EDGE_LOOP ( 'NONE', ( #129 ) ) ;
#72 = APPLICATION_PROTOCOL_DEFINITION ( 'international standard', 'config_control_design', 1994, #176 ) ;
#73 = CYLINDRICAL_SURFACE ( 'NONE', #48, 1.959999999999999964 ) ;
#74 = CIRCLE ( 'NONE', #102, 0.8349999999999998535 ) ;
#75 = ORIENTED_EDGE ( 'NONE', *, *, #199, .T. ) ;
#76 = ORIENTED_EDGE ( 'NONE', *, *, #306, .T. ) ;
#77 = EDGE_CURVE ( 'NONE', #227, #227, #10, .T. ) ;
#78 = ORIENTED_EDGE ( 'NONE', *, *, #77, .T. ) ;
#79 = CYLINDRICAL_SURFACE ( 'NONE', #94, 0.4999999999999997780 ) ;
#80 = DIRECTION ( 'NONE',  ( 3.491481338843133355E-15, -1.224646799147353207E-16, 1.000000000000000000 ) ) ;
#81 = DATE_AND_TIME ( #182, #160 ) ;
#82 = CARTESIAN_POINT ( 'NONE',  ( 3.316907271900976056E-14, -1.163414459189985485E-15, 9.500000000000000000 ) ) ;
#83 = FACE_BOUND ( 'NONE', #22, .T. ) ;
#84 = CLOSED_SHELL ( 'NONE', ( #258, #325, #59, #67, #246, #301, #8, #156, #140, #287, #20 ) ) ;
#85 =( GEOMETRIC_REPRESENTATION_CONTEXT ( 3 ) GLOBAL_UNCERTAINTY_ASSIGNED_CONTEXT ( ( #158 ) ) GLOBAL_UNIT_ASSIGNED_CONTEXT ( ( #44, #16, #247 ) ) REPRESENTATION_CONTEXT ( 'NONE', 'WORKASPACE' ) );
#86 = CARTESIAN_POINT ( 'NONE',  ( 1.312796983405018142E-13, -4.604671964794046935E-15, 37.59999999999999432 ) ) ;
#87 = VERTEX_POINT ( 'NONE', #275 ) ;
#88 = PLANE ( 'NONE',  #123 ) ;
#89 = CIRCLE ( 'NONE', #284, 0.4999999999999996669 ) ;
#90 = DIRECTION ( 'NONE',  ( 4.275831445896958607E-31, 1.000000000000000000, 1.224646799147353207E-16 ) ) ;
#91 = APPROVAL ( #17, 'UNSPECIFIED' ) ;
#92 = CARTESIAN_POINT ( 'NONE',  ( 2.789689482689513687E-14, 1.959999999999998632, 7.989988236952308753 ) ) ;
#93 = DIRECTION ( 'NONE',  ( 0.0000000000000000000, 1.000000000000000000, 0.0000000000000000000 ) ) ;
#94 = AXIS2_PLACEMENT_3D ( 'NONE', #292, #110, #163 ) ;
#95 = PRODUCT ( '381951', '381951', '', ( #206 ) ) ;
#96 = DIRECTION ( 'NONE',  ( 1.000000000000000000, 0.0000000000000000000, 0.0000000000000000000 ) ) ;
#97 = PERSON_AND_ORGANIZATION ( #210, #332 ) ;
#98 = MANIFOLD_SOLID_BREP ( 'Corps-Déplacer/Copier1[2]', #260 ) ;
#99 = DIRECTION ( 'NONE',  ( 0.0000000000000000000, 1.000000000000000000, 0.0000000000000000000 ) ) ;
#100 = DIRECTION ( 'NONE',  ( 0.0000000000000000000, 0.0000000000000000000, 1.000000000000000000 ) ) ;
#101 = ORIENTED_EDGE ( 'NONE', *, *, #269, .T. ) ;
#102 = AXIS2_PLACEMENT_3D ( 'NONE', #41, #248, #300 ) ;
#103 = EDGE_LOOP ( 'NONE', ( #101 ) ) ;
#104 = EDGE_CURVE ( 'NONE', #13, #13, #270, .T. ) ;
#105 = ORIENTED_EDGE ( 'NONE', *, *, #77, .F. ) ;
#106 = DIRECTION ( 'NONE',  ( 0.0000000000000000000, 1.000000000000000000, 0.0000000000000000000 ) ) ;
#107 = APPROVAL_PERSON_ORGANIZATION ( #97, #320, #231 ) ;
#108 = CARTESIAN_POINT ( 'NONE',  ( 3.316907271900976056E-14, -1.163414459189985485E-15, 9.500000000000000000 ) ) ;
#109 = APPROVAL_STATUS ( 'not_yet_approved' ) ;
#110 = DIRECTION ( 'NONE',  ( -3.491481338843133355E-15, 1.224646799147353207E-16, -1.000000000000000000 ) ) ;
#111 = DIRECTION ( 'NONE',  ( -3.491481338843133355E-15, 1.224646799147353207E-16, -1.000000000000000000 ) ) ;
#112 = DIRECTION ( 'NONE',  ( 4.275831445896958607E-31, 1.000000000000000000, 1.224646799147353207E-16 ) ) ;
#113 = CONICAL_SURFACE ( 'NONE', #304, 0.5625273371958187107, 0.2217440814658749038 ) ;
#114 = ADVANCED_FACE ( 'NONE', ( #28 ), #133, .F. ) ;
#115 = CARTESIAN_POINT ( 'NONE',  ( 1.326762908760390423E-13, 1.599999999999991873, 38.00000000000000000 ) ) ;
#116 = DIRECTION ( 'NONE',  ( -4.275831445896958607E-31, -1.000000000000000000, -1.224646799147353207E-16 ) ) ;
#117 = CC_DESIGN_PERSON_AND_ORGANIZATION_ASSIGNMENT ( #162, #122, ( #18 ) ) ;
#118 = DIRECTION ( 'NONE',  ( 0.0000000000000000000, 1.000000000000000000, 0.0000000000000000000 ) ) ;
#119 = AXIS2_PLACEMENT_3D ( 'NONE', #259, #130, #285 ) ;
#120 = DIRECTION ( 'NONE',  ( -3.491481338843133355E-15, 1.224646799147353207E-16, -1.000000000000000000 ) ) ;
#121 = FACE_OUTER_BOUND ( 'NONE', #281, .T. ) ;
#122 = PERSON_AND_ORGANIZATION_ROLE ( 'creator' ) ;
#123 = AXIS2_PLACEMENT_3D ( 'NONE', #12, #175, #116 ) ;
#124 = PERSON_AND_ORGANIZATION_ROLE ( 'design_owner' ) ;
#125 = ORIENTED_EDGE ( 'NONE', *, *, #128, .F. ) ;
#126 = PERSON_AND_ORGANIZATION ( #210, #332 ) ;
#127 = FACE_OUTER_BOUND ( 'NONE', #50, .T. ) ;
#128 = EDGE_CURVE ( 'NONE', #11, #11, #68, .T. ) ;
#129 = ORIENTED_EDGE ( 'NONE', *, *, #43, .F. ) ;
#130 = DIRECTION ( 'NONE',  ( -3.491481338843133355E-15, 1.224646799147353207E-16, -1.000000000000000000 ) ) ;
#131 = ORIENTED_EDGE ( 'NONE', *, *, #172, .T. ) ;
#132 = DATE_AND_TIME ( #27, #38 ) ;
#133 = PLANE ( 'NONE',  #201 ) ;
#134 = APPROVAL_ROLE ( '' ) ;
#135 = AXIS2_PLACEMENT_3D ( 'NONE', #7, #218, #324 ) ;
#136 = AXIS2_PLACEMENT_3D ( 'NONE', #253, #100, #96 ) ;
#137 = FACE_BOUND ( 'NONE', #53, .T. ) ;
#138 = CARTESIAN_POINT ( 'NONE',  ( -1.924197383177430044E-31, 6.749175887094222942E-33, -5.511120342447521859E-17 ) ) ;
#139 = CARTESIAN_POINT ( 'NONE',  ( 0.0000000000000000000, 0.0000000000000000000, 0.0000000000000000000 ) ) ;
#140 = ADVANCED_FACE ( 'NONE', ( #188, #316 ), #58, .T. ) ;
#141 = PLANE ( 'NONE',  #174 ) ;
#142 = CC_DESIGN_APPROVAL ( #91, ( #18 ) ) ;
#143 = VERTEX_POINT ( 'NONE', #335 ) ;
#144 = FACE_OUTER_BOUND ( 'NONE', #103, .T. ) ;
#145 = DIRECTION ( 'NONE',  ( -3.491481338843133355E-15, 1.224646799147353207E-16, -1.000000000000000000 ) ) ;
#146 = FACE_BOUND ( 'NONE', #209, .T. ) ;
#147 = ORIENTED_EDGE ( 'NONE', *, *, #199, .F. ) ;
#148 = CARTESIAN_POINT ( 'NONE',  ( 2.789689482689513687E-14, -9.784913519608648506E-16, 7.989988236952308753 ) ) ;
#149 = EDGE_CURVE ( 'NONE', #173, #173, #238, .T. ) ;
#150 = APPROVAL_DATE_TIME ( #294, #91 ) ;
#151 = FACE_OUTER_BOUND ( 'NONE', #25, .T. ) ;
#152 = AXIS2_PLACEMENT_3D ( 'NONE', #330, #145, #195 ) ;
#153 = CC_DESIGN_APPROVAL ( #320, ( #32 ) ) ;
#154 = DATE_TIME_ROLE ( 'classification_date' ) ;
#155 = DIRECTION ( 'NONE',  ( -3.491481338843133355E-15, 1.224646799147353207E-16, -1.000000000000000000 ) ) ;
#156 = ADVANCED_FACE ( 'NONE', ( #268, #36 ), #141, .F. ) ;
#157 = EDGE_LOOP ( 'NONE', ( #314 ) ) ;
#158 = UNCERTAINTY_MEASURE_WITH_UNIT (LENGTH_MEASURE( 1.000000000000000082E-05 ), #44, 'distance_accuracy_value', 'NONE');
#159 = CARTESIAN_POINT ( 'NONE',  ( 1.326762908760390423E-13, 1.199807826129476644E-32, 38.00000000000000000 ) ) ;
#160 = LOCAL_TIME ( 11, 23, 2.000000000000000000, #49 ) ;
#161 = ORIENTED_EDGE ( 'NONE', *, *, #43, .T. ) ;
#162 = PERSON_AND_ORGANIZATION ( #210, #332 ) ;
#163 = DIRECTION ( 'NONE',  ( 4.275831445896958607E-31, 1.000000000000000000, 1.224646799147353207E-16 ) ) ;
#164 = DIRECTION ( 'NONE',  ( 3.491481338843133355E-15, -1.224646799147353207E-16, 1.000000000000000000 ) ) ;
#165 = FACE_OUTER_BOUND ( 'NONE', #278, .T. ) ;
#166 = ADVANCED_BREP_SHAPE_REPRESENTATION ( '381951', ( #328, #98, #136 ), #85 ) ;
#167 = ADVANCED_FACE ( 'NONE', ( #6, #165 ), #79, .T. ) ;
#168 = DIRECTION ( 'NONE',  ( 3.491481338843133355E-15, -1.224646799147353207E-16, 1.000000000000000000 ) ) ;
#169 = CARTESIAN_POINT ( 'NONE',  ( 1.326762908760390423E-13, -4.653657836759941941E-15, 38.00000000000000000 ) ) ;
#170 = CARTESIAN_POINT ( 'NONE',  ( 3.316907271900976056E-14, 1.999999999999995337, 9.500000000000000000 ) ) ;
#171 = CYLINDRICAL_SURFACE ( 'NONE', #42, 0.5000000000000000000 ) ;
#172 = EDGE_CURVE ( 'NONE', #39, #39, #191, .T. ) ;
#173 = VERTEX_POINT ( 'NONE', #115 ) ;
#174 = AXIS2_PLACEMENT_3D ( 'NONE', #264, #164, #245 ) ;
#175 = DIRECTION ( 'NONE',  ( 3.491481338843133355E-15, -1.224646799147353207E-16, 1.000000000000000000 ) ) ;
#176 = APPLICATION_CONTEXT ( 'configuration controlled 3d designs of mechanical parts and assemblies' ) ;
#177 = EDGE_LOOP ( 'NONE', ( #78 ) ) ;
#178 = APPLICATION_PROTOCOL_DEFINITION ( 'international standard', 'config_control_design', 1994, #303 ) ;
#179 = ORIENTED_EDGE ( 'NONE', *, *, #269, .F. ) ;
#180 = PRODUCT_DEFINITION ( 'UNKNOWN', '', #18, #24 ) ;
#181 = LOCAL_TIME ( 11, 23, 2.000000000000000000, #283 ) ;
#182 = CALENDAR_DATE ( 2022, 11, 1 ) ;
#183 = EDGE_LOOP ( 'NONE', ( #75 ) ) ;
#184 = DIRECTION ( 'NONE',  ( -3.491481338843133355E-15, 1.224646799147353207E-16, -1.000000000000000000 ) ) ;
#185 = ORIENTED_EDGE ( 'NONE', *, *, #249, .T. ) ;
#186 = DIRECTION ( 'NONE',  ( 4.334843211237535392E-31, 1.000000000000000000, 1.224646799147353207E-16 ) ) ;
#187 = SHAPE_DEFINITION_REPRESENTATION ( #56, #166 ) ;
#188 = FACE_OUTER_BOUND ( 'NONE', #47, .T. ) ;
#189 = CALENDAR_DATE ( 2022, 11, 1 ) ;
#190 = DIRECTION ( 'NONE',  ( -4.275831445896958607E-31, -1.000000000000000000, -1.224646799147353207E-16 ) ) ;
#191 = CIRCLE ( 'NONE', #37, 1.999999999999996669 ) ;
#192 = FACE_OUTER_BOUND ( 'NONE', #289, .T. ) ;
#193 = DIRECTION ( 'NONE',  ( 0.0000000000000000000, 1.000000000000000000, 0.0000000000000000000 ) ) ;
#194 = VERTEX_POINT ( 'NONE', #92 ) ;
#195 = DIRECTION ( 'NONE',  ( 0.0000000000000000000, 1.000000000000000000, 0.0000000000000000000 ) ) ;
#196 = ADVANCED_FACE ( 'NONE', ( #30 ), #216, .T. ) ;
#197 = FACE_OUTER_BOUND ( 'NONE', #286, .T. ) ;
#198 = CARTESIAN_POINT ( 'NONE',  ( 1.047444401652940007E-14, 0.8349999999999995204, 3.000000000000000000 ) ) ;
#199 = EDGE_CURVE ( 'NONE', #302, #302, #89, .T. ) ;
#200 = CARTESIAN_POINT ( 'NONE',  ( 2.789689482689513687E-14, -9.784913519608648506E-16, 7.989988236952308753 ) ) ;
#201 = AXIS2_PLACEMENT_3D ( 'NONE', #243, #266, #297 ) ;
#202 = PERSON_AND_ORGANIZATION ( #210, #332 ) ;
#203 = EDGE_LOOP ( 'NONE', ( #147 ) ) ;
#204 = APPROVAL_STATUS ( 'not_yet_approved' ) ;
#205 = ORIENTED_EDGE ( 'NONE', *, *, #306, .F. ) ;
#206 = MECHANICAL_CONTEXT ( 'NONE', #176, 'mechanical' ) ;
#207 = FACE_OUTER_BOUND ( 'NONE', #235, .T. ) ;
#208 = AXIS2_PLACEMENT_3D ( 'NONE', #139, #9, #112 ) ;
#209 = EDGE_LOOP ( 'NONE', ( #272 ) ) ;
#210 = PERSON ( 'UNSPECIFIED', 'UNSPECIFIED', 'UNSPECIFIED', ('UNSPECIFIED'), ('UNSPECIFIED'), ('UNSPECIFIED') ) ;
#211 = EDGE_LOOP ( 'NONE', ( #1 ) ) ;
#212 = CIRCLE ( 'NONE', #119, 0.4999999999999998890 ) ;
#213 = APPROVAL_PERSON_ORGANIZATION ( #21, #91, #29 ) ;
#214 = DIRECTION ( 'NONE',  ( -3.491481338843133355E-15, 1.224646799147353207E-16, -1.000000000000000000 ) ) ;
#215 = DATE_AND_TIME ( #239, #181 ) ;
#216 = PLANE ( 'NONE',  #290 ) ;
#217 = CC_DESIGN_PERSON_AND_ORGANIZATION_ASSIGNMENT ( #126, #60, ( #180 ) ) ;
#218 = DIRECTION ( 'NONE',  ( -3.491481338843133355E-15, 1.224646799147353207E-16, -1.000000000000000000 ) ) ;
#219 = CIRCLE ( 'NONE', #135, 0.5625273371958187107 ) ;
#220 = AXIS2_PLACEMENT_3D ( 'NONE', #159, #184, #339 ) ;
#221 = DIRECTION ( 'NONE',  ( -3.491481338843133355E-15, 1.224646799147353207E-16, -1.000000000000000000 ) ) ;
#222 = DIRECTION ( 'NONE',  ( -3.491481338843133355E-15, 1.224646799147353207E-16, -1.000000000000000000 ) ) ;
#223 = VERTEX_POINT ( 'NONE', #336 ) ;
#224 = CARTESIAN_POINT ( 'NONE',  ( 3.316907271900976056E-14, 1.959999999999998632, 9.500000000000000000 ) ) ;
#225 = AXIS2_PLACEMENT_3D ( 'NONE', #69, #222, #118 ) ;
#226 = CARTESIAN_POINT ( 'NONE',  ( 1.026447565081798476E-14, 0.5489692899384942537, 2.939862669928808625 ) ) ;
#227 = VERTEX_POINT ( 'NONE', #40 ) ;
#228 = CALENDAR_DATE ( 2022, 11, 1 ) ;
#229 = PLANE ( 'NONE',  #220 ) ;
#230 = CC_DESIGN_DATE_AND_TIME_ASSIGNMENT ( #81, #52, ( #180 ) ) ;
#231 = APPROVAL_ROLE ( '' ) ;
#232 = ORIENTED_EDGE ( 'NONE', *, *, #149, .F. ) ;
#233 = ORIENTED_EDGE ( 'NONE', *, *, #51, .F. ) ;
#234 = EDGE_LOOP ( 'NONE', ( #105 ) ) ;
#235 = EDGE_LOOP ( 'NONE', ( #232 ) ) ;
#236 = APPROVAL_DATE_TIME ( #255, #320 ) ;
#237 = DIRECTION ( 'NONE',  ( -3.491481338843133355E-15, 1.224646799147353207E-16, -1.000000000000000000 ) ) ;
#238 = CIRCLE ( 'NONE', #326, 1.599999999999996314 ) ;
#239 = CALENDAR_DATE ( 2022, 11, 1 ) ;
#240 = EDGE_CURVE ( 'NONE', #87, #87, #219, .T. ) ;
#241 = DIRECTION ( 'NONE',  ( -3.491481338843133355E-15, 1.224646799147353207E-16, -1.000000000000000000 ) ) ;
#242 = DIRECTION ( 'NONE',  ( 0.0000000000000000000, 1.000000000000000000, 0.0000000000000000000 ) ) ;
#243 = CARTESIAN_POINT ( 'NONE',  ( -9.620986915887150220E-32, 3.374587943547111471E-33, -2.755560171223760929E-17 ) ) ;
#244 = AXIS2_PLACEMENT_3D ( 'NONE', #86, #263, #193 ) ;
#245 = DIRECTION ( 'NONE',  ( -4.275831445896958607E-31, -1.000000000000000000, -1.224646799147353207E-16 ) ) ;
#246 = ADVANCED_FACE ( 'NONE', ( #83, #192 ), #296, .F. ) ;
#247 =( NAMED_UNIT ( * ) SI_UNIT ( $, .STERADIAN. ) SOLID_ANGLE_UNIT ( ) );
#248 = DIRECTION ( 'NONE',  ( -3.491481338843133355E-15, 1.224646799147353207E-16, -1.000000000000000000 ) ) ;
#249 = EDGE_CURVE ( 'NONE', #143, #143, #54, .T. ) ;
#250 = DIRECTION ( 'NONE',  ( 0.0000000000000000000, -1.000000000000000000, 0.0000000000000000000 ) ) ;
#251 = CIRCLE ( 'NONE', #317, 1.959999999999999520 ) ;
#252 = ORIENTED_EDGE ( 'NONE', *, *, #240, .F. ) ;
#253 = CARTESIAN_POINT ( 'NONE',  ( 0.0000000000000000000, 0.0000000000000000000, 0.0000000000000000000 ) ) ;
#254 = DIRECTION ( 'NONE',  ( -3.491481338843133355E-15, 1.224646799147353207E-16, -1.000000000000000000 ) ) ;
#255 = DATE_AND_TIME ( #228, #299 ) ;
#256 = DIRECTION ( 'NONE',  ( 4.275831445896958607E-31, 1.000000000000000000, 1.224646799147353207E-16 ) ) ;
#257 = ORIENTED_EDGE ( 'NONE', *, *, #51, .T. ) ;
#258 = ADVANCED_FACE ( 'NONE', ( #121 ), #88, .F. ) ;
#259 = CARTESIAN_POINT ( 'NONE',  ( 5.237222008264700033E-15, -1.836970198721029934E-16, 1.500000000000000000 ) ) ;
#260 = CLOSED_SHELL ( 'NONE', ( #114, #167, #196 ) ) ;
#261 = ORIENTED_EDGE ( 'NONE', *, *, #104, .F. ) ;
#262 = COORDINATED_UNIVERSAL_TIME_OFFSET ( 1, 0, .AHEAD. ) ;
#263 = DIRECTION ( 'NONE',  ( -3.491481338843133355E-15, 1.224646799147353207E-16, -1.000000000000000000 ) ) ;
#264 = CARTESIAN_POINT ( 'NONE',  ( 3.316907271900976056E-14, 2.969524369670473466E-32, 9.500000000000000000 ) ) ;
#265 = CONICAL_SURFACE ( 'NONE', #14, 1.959999999999999520, 0.2217440814658727666 ) ;
#266 = DIRECTION ( 'NONE',  ( 3.491481338843133355E-15, -1.224646799147353207E-16, 1.000000000000000000 ) ) ;
#267 = DIRECTION ( 'NONE',  ( 3.491481338843133355E-15, -1.224646799147353207E-16, 1.000000000000000000 ) ) ;
#268 = FACE_BOUND ( 'NONE', #26, .T. ) ;
#269 = EDGE_CURVE ( 'NONE', #194, #194, #251, .T. ) ;
#270 = CIRCLE ( 'NONE', #342, 1.959999999999999964 ) ;
#271 = VERTEX_POINT ( 'NONE', #198 ) ;
#272 = ORIENTED_EDGE ( 'NONE', *, *, #149, .T. ) ;
#273 = CARTESIAN_POINT ( 'NONE',  ( 5.237222008264700033E-15, 0.4999999999999996669, 1.500000000000000000 ) ) ;
#274 = CC_DESIGN_DATE_AND_TIME_ASSIGNMENT ( #132, #154, ( #32 ) ) ;
#275 = CARTESIAN_POINT ( 'NONE',  ( 1.047444401652940007E-14, 0.5625273371958183777, 3.000000000000000000 ) ) ;
#276 = CARTESIAN_POINT ( 'NONE',  ( 0.0000000000000000000, 0.0000000000000000000, 0.0000000000000000000 ) ) ;
#277 = TOROIDAL_SURFACE ( 'NONE', #5, 2.500000000000000000, 2.000000000000000000 ) ;
#278 = EDGE_LOOP ( 'NONE', ( #161 ) ) ;
#279 = DIRECTION ( 'NONE',  ( -3.491481338843133355E-15, 1.224646799147353207E-16, -1.000000000000000000 ) ) ;
#280 = PERSON_AND_ORGANIZATION ( #210, #332 ) ;
#281 = EDGE_LOOP ( 'NONE', ( #257 ) ) ;
#282 = CC_DESIGN_PERSON_AND_ORGANIZATION_ASSIGNMENT ( #319, #307, ( #18 ) ) ;
#283 = COORDINATED_UNIVERSAL_TIME_OFFSET ( 1, 0, .AHEAD. ) ;
#284 = AXIS2_PLACEMENT_3D ( 'NONE', #138, #214, #321 ) ;
#285 = DIRECTION ( 'NONE',  ( 0.0000000000000000000, 1.000000000000000000, 0.0000000000000000000 ) ) ;
#286 = EDGE_LOOP ( 'NONE', ( #233 ) ) ;
#287 = ADVANCED_FACE ( 'NONE', ( #45, #146 ), #311, .T. ) ;
#288 = EDGE_LOOP ( 'NONE', ( #131 ) ) ;
#289 = EDGE_LOOP ( 'NONE', ( #76 ) ) ;
#290 = AXIS2_PLACEMENT_3D ( 'NONE', #323, #80, #190 ) ;
#291 = CC_DESIGN_APPROVAL ( #3, ( #180 ) ) ;
#292 = CARTESIAN_POINT ( 'NONE',  ( 0.0000000000000000000, 0.0000000000000000000, 0.0000000000000000000 ) ) ;
#293 = DIRECTION ( 'NONE',  ( 0.0000000000000000000, -1.000000000000000000, 0.0000000000000000000 ) ) ;
#294 = DATE_AND_TIME ( #189, #313 ) ;
#295 = DIRECTION ( 'NONE',  ( -3.491481338843133355E-15, 1.224646799147353207E-16, -1.000000000000000000 ) ) ;
#296 = PLANE ( 'NONE',  #331 ) ;
#297 = DIRECTION ( 'NONE',  ( -4.275831445896958607E-31, -1.000000000000000000, -1.224646799147353207E-16 ) ) ;
#298 = CIRCLE ( 'NONE', #31, 0.4999999999999998890 ) ;
#299 = LOCAL_TIME ( 11, 23, 2.000000000000000000, #46 ) ;
#300 = DIRECTION ( 'NONE',  ( 0.0000000000000000000, 1.000000000000000000, 0.0000000000000000000 ) ) ;
#301 = ADVANCED_FACE ( 'NONE', ( #15, #144 ), #265, .T. ) ;
#302 = VERTEX_POINT ( 'NONE', #329 ) ;
#303 = APPLICATION_CONTEXT ( 'configuration controlled 3d designs of mechanical parts and assemblies' ) ;
#304 = AXIS2_PLACEMENT_3D ( 'NONE', #57, #168, #293 ) ;
#305 = CC_DESIGN_SECURITY_CLASSIFICATION ( #32, ( #18 ) ) ;
#306 = EDGE_CURVE ( 'NONE', #271, #271, #74, .T. ) ;
#307 = PERSON_AND_ORGANIZATION_ROLE ( 'design_supplier' ) ;
#308 = ORIENTED_EDGE ( 'NONE', *, *, #240, .T. ) ;
#309 = SECURITY_CLASSIFICATION_LEVEL ( 'unclassified' ) ;
#310 = EDGE_LOOP ( 'NONE', ( #185 ) ) ;
#311 = CONICAL_SURFACE ( 'NONE', #152, 1.599999999999996314, 0.7853981633974433940 ) ;
#312 = CARTESIAN_POINT ( 'NONE',  ( 5.237222008264700033E-15, -1.836970198721029934E-16, 1.500000000000000000 ) ) ;
#313 = LOCAL_TIME ( 11, 23, 2.000000000000000000, #70 ) ;
#314 = ORIENTED_EDGE ( 'NONE', *, *, #104, .T. ) ;
#315 = ORIENTED_EDGE ( 'NONE', *, *, #172, .F. ) ;
#316 = FACE_OUTER_BOUND ( 'NONE', #177, .T. ) ;
#317 = AXIS2_PLACEMENT_3D ( 'NONE', #200, #279, #93 ) ;
#318 = APPROVAL_PERSON_ORGANIZATION ( #202, #3, #134 ) ;
#319 = PERSON_AND_ORGANIZATION ( #210, #332 ) ;
#320 = APPROVAL ( #204, 'UNSPECIFIED' ) ;
#321 = DIRECTION ( 'NONE',  ( 4.275831445896957731E-31, 1.000000000000000000, 1.224646799147353207E-16 ) ) ;
#322 = APPROVAL_DATE_TIME ( #215, #3 ) ;
#323 = CARTESIAN_POINT ( 'NONE',  ( 5.237222008264700033E-15, 3.749399456654640598E-33, 1.500000000000000000 ) ) ;
#324 = DIRECTION ( 'NONE',  ( 0.0000000000000000000, 1.000000000000000000, 0.0000000000000000000 ) ) ;
#325 = ADVANCED_FACE ( 'NONE', ( #197, #333 ), #171, .T. ) ;
#326 = AXIS2_PLACEMENT_3D ( 'NONE', #169, #111, #34 ) ;
#327 = CARTESIAN_POINT ( 'NONE',  ( 8.728703347107831810E-15, -4.336808689942017736E-16, 2.499999999999999556 ) ) ;
#328 = MANIFOLD_SOLID_BREP ( 'Corps-Déplacer/Copier1[1]', #84 ) ;
#329 = CARTESIAN_POINT ( 'NONE',  ( 2.137183397710476993E-32, 0.4999999999999996669, 6.121136532892404794E-18 ) ) ;
#330 = CARTESIAN_POINT ( 'NONE',  ( 1.326762908760390423E-13, -4.653657836759941941E-15, 38.00000000000000000 ) ) ;
#331 = AXIS2_PLACEMENT_3D ( 'NONE', #62, #267, #35 ) ;
#332 = ORGANIZATION ( 'UNSPECIFIED', 'UNSPECIFIED', '' ) ;
#333 = FACE_OUTER_BOUND ( 'NONE', #310, .T. ) ;
#334 = CC_DESIGN_PERSON_AND_ORGANIZATION_ASSIGNMENT ( #337, #124, ( #95 ) ) ;
#335 = CARTESIAN_POINT ( 'NONE',  ( 8.728703347107833388E-15, 0.4999999999999996669, 2.500000000000000000 ) ) ;
#336 = CARTESIAN_POINT ( 'NONE',  ( 5.237222008264700033E-15, 0.4999999999999996669, 1.500000000000000000 ) ) ;
#337 = PERSON_AND_ORGANIZATION ( #210, #332 ) ;
#338 = PERSON_AND_ORGANIZATION_ROLE ( 'classification_officer' ) ;
#339 = DIRECTION ( 'NONE',  ( 4.275831445896958607E-31, 1.000000000000000000, 1.224646799147353207E-16 ) ) ;
#340 = CC_DESIGN_PERSON_AND_ORGANIZATION_ASSIGNMENT ( #280, #338, ( #32 ) ) ;
#341 = FACE_OUTER_BOUND ( 'NONE', #211, .T. ) ;
#342 = AXIS2_PLACEMENT_3D ( 'NONE', #82, #237, #106 ) ;
#343 = CARTESIAN_POINT ( 'NONE',  ( 0.0000000000000000000, 0.0000000000000000000, 0.0000000000000000000 ) ) ;
ENDSEC;
END-ISO-10303-21;
