ISO-10303-21;
HEADER;
FILE_DESCRIPTION (( 'STEP AP203' ),
    '1' );
FILE_NAME ('381950.step',
    '2022-01-11T10:23:01',
    ( '' ),
    ( '' ),
    'SwSTEP 2.0',
    'SolidWorks 2019',
    '' );
FILE_SCHEMA (( 'CONFIG_CONTROL_DESIGN' ));
ENDSEC;

DATA;
#1 = VERTEX_POINT ( 'NONE', #130 ) ;
#2 = PERSON_AND_ORGANIZATION ( #3, #178 ) ;
#3 = PERSON ( 'UNSPECIFIED', 'UNSPECIFIED', 'UNSPECIFIED', ('UNSPECIFIED'), ('UNSPECIFIED'), ('UNSPECIFIED') ) ;
#4 = APPROVAL_ROLE ( '' ) ;
#5 = AXIS2_PLACEMENT_3D ( 'NONE', #55, #6, #231 ) ;
#6 = DIRECTION ( 'NONE',  ( -3.491481338843133355E-15, 1.227056696963693029E-16, -1.000000000000000000 ) ) ;
#7 = PERSON_AND_ORGANIZATION ( #3, #178 ) ;
#8 = ORIENTED_EDGE ( 'NONE', *, *, #301, .T. ) ;
#9 = EDGE_LOOP ( 'NONE', ( #199 ) ) ;
#10 = ADVANCED_FACE ( 'NONE', ( #207, #106 ), #31, .T. ) ;
#11 = CIRCLE ( 'NONE', #174, 1.599999999999996536 ) ;
#12 = CARTESIAN_POINT ( 'NONE',  ( 3.316907271900976056E-14, -1.156546250413416869E-15, 9.500000000000000000 ) ) ;
#13 = VERTEX_POINT ( 'NONE', #107 ) ;
#14 = EDGE_CURVE ( 'NONE', #153, #153, #85, .T. ) ;
#15 = CYLINDRICAL_SURFACE ( 'NONE', #149, 0.4499999999999999001 ) ;
#16 = AXIS2_PLACEMENT_3D ( 'NONE', #66, #68, #291 ) ;
#17 = CARTESIAN_POINT ( 'NONE',  ( 3.316907271900976056E-14, 1.999999999999994893, 9.500000000000000000 ) ) ;
#18 = ADVANCED_FACE ( 'NONE', ( #33 ), #102, .T. ) ;
#19 = DIRECTION ( 'NONE',  ( -3.491481338843133355E-15, 1.227056696963693029E-16, -1.000000000000000000 ) ) ;
#20 = CARTESIAN_POINT ( 'NONE',  ( 1.326762908760390423E-13, 1.599999999999992095, 38.00000000000000000 ) ) ;
#21 = LOCAL_TIME ( 11, 23, 1.000000000000000000, #142 ) ;
#22 = APPROVAL_STATUS ( 'not_yet_approved' ) ;
#23 = CALENDAR_DATE ( 2022, 11, 1 ) ;
#24 = MECHANICAL_CONTEXT ( 'NONE', #286, 'mechanical' ) ;
#25 = AXIS2_PLACEMENT_3D ( 'NONE', #188, #214, #119 ) ;
#26 = CIRCLE ( 'NONE', #238, 0.4499999999999999556 ) ;
#27 = PERSON_AND_ORGANIZATION ( #3, #178 ) ;
#28 = SECURITY_CLASSIFICATION_LEVEL ( 'unclassified' ) ;
#29 = DESIGN_CONTEXT ( 'detailed design', #125, 'design' ) ;
#30 = EDGE_LOOP ( 'NONE', ( #235 ) ) ;
#31 = CYLINDRICAL_SURFACE ( 'NONE', #5, 1.999999999999996669 ) ;
#32 = APPROVAL_PERSON_ORGANIZATION ( #296, #59, #180 ) ;
#33 = FACE_OUTER_BOUND ( 'NONE', #303, .T. ) ;
#34 = DIRECTION ( 'NONE',  ( 3.491481338843133355E-15, -1.227056696963693029E-16, 1.000000000000000000 ) ) ;
#35 = ORIENTED_EDGE ( 'NONE', *, *, #223, .T. ) ;
#36 = APPROVAL_DATE_TIME ( #183, #75 ) ;
#37 = CIRCLE ( 'NONE', #52, 0.4499999999999997891 ) ;
#38 = DIRECTION ( 'NONE',  ( 4.275831445896958607E-31, 1.000000000000000000, 1.224646799147353207E-16 ) ) ;
#39 = CARTESIAN_POINT ( 'NONE',  ( 2.789689482689513687E-14, 1.959999999999998632, 7.989988236952308753 ) ) ;
#40 = CARTESIAN_POINT ( 'NONE',  ( -8.552029054412912320E-32, 2.999647997881647411E-33, -2.449398471436922997E-17 ) ) ;
#41 = DIRECTION ( 'NONE',  ( 3.491481338843133355E-15, -1.224646799147353207E-16, 1.000000000000000000 ) ) ;
#42 = AXIS2_PLACEMENT_3D ( 'NONE', #113, #266, #44 ) ;
#43 = VERTEX_POINT ( 'NONE', #20 ) ;
#44 = DIRECTION ( 'NONE',  ( 0.0000000000000000000, 1.000000000000000000, 0.0000000000000000000 ) ) ;
#45 = DATE_AND_TIME ( #115, #162 ) ;
#46 = ADVANCED_BREP_SHAPE_REPRESENTATION ( '381950', ( #276, #281, #299 ), #169 ) ;
#47 = CONICAL_SURFACE ( 'NONE', #247, 0.8349999999999999645, 0.2217440814658727666 ) ;
#48 =( NAMED_UNIT ( * ) SI_UNIT ( $, .STERADIAN. ) SOLID_ANGLE_UNIT ( ) );
#49 = CARTESIAN_POINT ( 'NONE',  ( 0.0000000000000000000, 0.0000000000000000000, 0.0000000000000000000 ) ) ;
#50 = ORIENTED_EDGE ( 'NONE', *, *, #131, .T. ) ;
#51 =( NAMED_UNIT ( * ) PLANE_ANGLE_UNIT ( ) SI_UNIT ( $, .RADIAN. ) );
#52 = AXIS2_PLACEMENT_3D ( 'NONE', #61, #237, #38 ) ;
#53 = ADVANCED_FACE ( 'NONE', ( #212 ), #140, .T. ) ;
#54 = PERSON_AND_ORGANIZATION ( #3, #178 ) ;
#55 = CARTESIAN_POINT ( 'NONE',  ( 4.888073874380386697E-15, -1.626303258728256651E-16, 1.399999999999999911 ) ) ;
#56 = ORIENTED_EDGE ( 'NONE', *, *, #223, .F. ) ;
#57 = CC_DESIGN_SECURITY_CLASSIFICATION ( #277, ( #294 ) ) ;
#58 = CARTESIAN_POINT ( 'NONE',  ( 1.326762908760390423E-13, -4.653657836759941941E-15, 38.00000000000000000 ) ) ;
#59 = APPROVAL ( #22, 'UNSPECIFIED' ) ;
#60 = ORIENTED_EDGE ( 'NONE', *, *, #218, .T. ) ;
#61 = CARTESIAN_POINT ( 'NONE',  ( -1.710405810882582464E-31, 5.999295995763294823E-33, -4.898796942873845995E-17 ) ) ;
#62 = CC_DESIGN_PERSON_AND_ORGANIZATION_ASSIGNMENT ( #54, #133, ( #294 ) ) ;
#63 = CARTESIAN_POINT ( 'NONE',  ( 3.316907271900976056E-14, 1.959999999999998188, 9.500000000000000000 ) ) ;
#64 = CARTESIAN_POINT ( 'NONE',  ( 1.047444401652940007E-14, 0.4499999999999997335, 3.000000000000000000 ) ) ;
#65 = DIRECTION ( 'NONE',  ( -3.491481338843133355E-15, 1.227056696963693029E-16, -1.000000000000000000 ) ) ;
#66 = CARTESIAN_POINT ( 'NONE',  ( 1.047444401652940007E-14, -3.589593973870165597E-16, 3.000000000000000000 ) ) ;
#67 = CIRCLE ( 'NONE', #227, 1.999999999999996225 ) ;
#68 = DIRECTION ( 'NONE',  ( -3.491481338843133355E-15, 1.227056696963693029E-16, -1.000000000000000000 ) ) ;
#69 = PERSON_AND_ORGANIZATION ( #3, #178 ) ;
#70 = DATE_AND_TIME ( #270, #232 ) ;
#71 = ORIENTED_EDGE ( 'NONE', *, *, #14, .T. ) ;
#72 = CC_DESIGN_APPROVAL ( #59, ( #294 ) ) ;
#73 = COORDINATED_UNIVERSAL_TIME_OFFSET ( 1, 0, .AHEAD. ) ;
#74 = ORIENTED_EDGE ( 'NONE', *, *, #14, .F. ) ;
#75 = APPROVAL ( #100, 'UNSPECIFIED' ) ;
#76 = APPROVAL_DATE_TIME ( #45, #59 ) ;
#77 = AXIS2_PLACEMENT_3D ( 'NONE', #243, #19, #112 ) ;
#78 = EDGE_LOOP ( 'NONE', ( #50 ) ) ;
#79 = CYLINDRICAL_SURFACE ( 'NONE', #95, 0.4500000000000000111 ) ;
#80 = ORIENTED_EDGE ( 'NONE', *, *, #265, .F. ) ;
#81 = AXIS2_PLACEMENT_3D ( 'NONE', #262, #288, #172 ) ;
#82 = PLANE ( 'NONE',  #221 ) ;
#83 = DIRECTION ( 'NONE',  ( 3.491481338843133355E-15, -1.224646799147353207E-16, 1.000000000000000000 ) ) ;
#84 = DIRECTION ( 'NONE',  ( 3.491481338843133355E-15, -1.227056696963693029E-16, 1.000000000000000000 ) ) ;
#85 = CIRCLE ( 'NONE', #25, 1.959999999999999520 ) ;
#86 = VERTEX_POINT ( 'NONE', #240 ) ;
#87 = DIRECTION ( 'NONE',  ( 4.284245559151227911E-31, 1.000000000000000000, 1.227056696963693029E-16 ) ) ;
#88 = CARTESIAN_POINT ( 'NONE',  ( 4.888073874380386697E-15, -1.626303258728256651E-16, 1.399999999999999911 ) ) ;
#89 = DIRECTION ( 'NONE',  ( -3.491481338843133355E-15, 1.224646799147353207E-16, -1.000000000000000000 ) ) ;
#90 = VERTEX_POINT ( 'NONE', #63 ) ;
#91 = EDGE_CURVE ( 'NONE', #129, #129, #67, .T. ) ;
#92 = PRODUCT ( '381950', '381950', '', ( #24 ) ) ;
#93 = DATE_TIME_ROLE ( 'creation_date' ) ;
#94 = ORIENTED_EDGE ( 'NONE', *, *, #265, .T. ) ;
#95 = AXIS2_PLACEMENT_3D ( 'NONE', #164, #103, #282 ) ;
#96 = COORDINATED_UNIVERSAL_TIME_OFFSET ( 1, 0, .AHEAD. ) ;
#97 = EDGE_LOOP ( 'NONE', ( #256 ) ) ;
#98 = PERSON_AND_ORGANIZATION_ROLE ( 'creator' ) ;
#99 = CIRCLE ( 'NONE', #16, 0.4500000000000001221 ) ;
#100 = APPROVAL_STATUS ( 'not_yet_approved' ) ;
#101 = DIRECTION ( 'NONE',  ( 4.284245559151227911E-31, 1.000000000000000000, 1.227056696963693029E-16 ) ) ;
#102 = PLANE ( 'NONE',  #201 ) ;
#103 = DIRECTION ( 'NONE',  ( -3.491481338843133355E-15, 1.227056696963693029E-16, -1.000000000000000000 ) ) ;
#104 = CIRCLE ( 'NONE', #196, 1.959999999999999520 ) ;
#105 = DIRECTION ( 'NONE',  ( 0.0000000000000000000, 1.000000000000000000, 0.0000000000000000000 ) ) ;
#106 = FACE_OUTER_BOUND ( 'NONE', #97, .T. ) ;
#107 = CARTESIAN_POINT ( 'NONE',  ( 2.137183397710479182E-32, 0.4499999999999997891, 6.121136532892404794E-18 ) ) ;
#108 = CLOSED_SHELL ( 'NONE', ( #260, #190, #233, #245, #10, #210, #53, #18, #135 ) ) ;
#109 = CC_DESIGN_APPROVAL ( #75, ( #277 ) ) ;
#110 = DIRECTION ( 'NONE',  ( 0.0000000000000000000, 1.000000000000000000, 0.0000000000000000000 ) ) ;
#111 = CYLINDRICAL_SURFACE ( 'NONE', #208, 1.959999999999999964 ) ;
#112 = DIRECTION ( 'NONE',  ( 4.284245559151227911E-31, 1.000000000000000000, 1.227056696963693029E-16 ) ) ;
#113 = CARTESIAN_POINT ( 'NONE',  ( 1.312796983405018142E-13, -4.604575568881394032E-15, 37.59999999999999432 ) ) ;
#114 = CIRCLE ( 'NONE', #213, 1.999999999999996669 ) ;
#115 = CALENDAR_DATE ( 2022, 11, 1 ) ;
#116 = EDGE_LOOP ( 'NONE', ( #139 ) ) ;
#117 = APPLICATION_PROTOCOL_DEFINITION ( 'international standard', 'config_control_design', 1994, #125 ) ;
#118 = ORIENTED_EDGE ( 'NONE', *, *, #255, .T. ) ;
#119 = DIRECTION ( 'NONE',  ( 0.0000000000000000000, 1.000000000000000000, 0.0000000000000000000 ) ) ;
#120 = FACE_OUTER_BOUND ( 'NONE', #185, .T. ) ;
#121 = EDGE_CURVE ( 'NONE', #43, #43, #11, .T. ) ;
#122 = EDGE_LOOP ( 'NONE', ( #229 ) ) ;
#123 = FACE_OUTER_BOUND ( 'NONE', #158, .T. ) ;
#124 = CARTESIAN_POINT ( 'NONE',  ( 0.0000000000000000000, 0.0000000000000000000, 0.0000000000000000000 ) ) ;
#125 = APPLICATION_CONTEXT ( 'configuration controlled 3d designs of mechanical parts and assemblies' ) ;
#126 = PLANE ( 'NONE',  #192 ) ;
#127 = CARTESIAN_POINT ( 'NONE',  ( 1.047444401652940007E-14, 0.8349999999999996314, 3.000000000000000000 ) ) ;
#128 = FACE_OUTER_BOUND ( 'NONE', #78, .T. ) ;
#129 = VERTEX_POINT ( 'NONE', #17 ) ;
#130 = CARTESIAN_POINT ( 'NONE',  ( 1.312796983405018142E-13, 1.999999999999991784, 37.59999999999999432 ) ) ;
#131 = EDGE_CURVE ( 'NONE', #90, #90, #104, .T. ) ;
#132 = CONICAL_SURFACE ( 'NONE', #42, 1.999999999999997113, 0.7853981633974433940 ) ;
#133 = PERSON_AND_ORGANIZATION_ROLE ( 'design_supplier' ) ;
#134 = SHAPE_DEFINITION_REPRESENTATION ( #300, #46 ) ;
#135 = ADVANCED_FACE ( 'NONE', ( #287, #120 ), #79, .T. ) ;
#136 = EDGE_LOOP ( 'NONE', ( #259 ) ) ;
#137 = CALENDAR_DATE ( 2022, 11, 1 ) ;
#138 = UNCERTAINTY_MEASURE_WITH_UNIT (LENGTH_MEASURE( 1.000000000000000082E-05 ), #249, 'distance_accuracy_value', 'NONE');
#139 = ORIENTED_EDGE ( 'NONE', *, *, #163, .F. ) ;
#140 = PLANE ( 'NONE',  #150 ) ;
#141 = DIRECTION ( 'NONE',  ( -3.491481338843133355E-15, 1.227056696963693029E-16, -1.000000000000000000 ) ) ;
#142 = COORDINATED_UNIVERSAL_TIME_OFFSET ( 1, 0, .AHEAD. ) ;
#143 = EDGE_LOOP ( 'NONE', ( #35 ) ) ;
#144 = APPROVAL_PERSON_ORGANIZATION ( #7, #75, #4 ) ;
#145 = PLANE ( 'NONE',  #182 ) ;
#146 = FACE_OUTER_BOUND ( 'NONE', #254, .T. ) ;
#147 = CC_DESIGN_DATE_AND_TIME_ASSIGNMENT ( #160, #93, ( #284 ) ) ;
#148 = PLANE ( 'NONE',  #77 ) ;
#149 = AXIS2_PLACEMENT_3D ( 'NONE', #124, #89, #217 ) ;
#150 = AXIS2_PLACEMENT_3D ( 'NONE', #58, #34, #186 ) ;
#151 = FACE_OUTER_BOUND ( 'NONE', #275, .T. ) ;
#152 = ADVANCED_FACE ( 'NONE', ( #167 ), #82, .T. ) ;
#153 = VERTEX_POINT ( 'NONE', #39 ) ;
#154 = DATE_AND_TIME ( #205, #253 ) ;
#155 = DATE_TIME_ROLE ( 'classification_date' ) ;
#156 = LOCAL_TIME ( 11, 23, 1.000000000000000000, #73 ) ;
#157 = CARTESIAN_POINT ( 'NONE',  ( 1.047444401652940007E-14, 0.8349999999999997424, 3.000000000000000000 ) ) ;
#158 = EDGE_LOOP ( 'NONE', ( #71 ) ) ;
#159 = CC_DESIGN_PERSON_AND_ORGANIZATION_ASSIGNMENT ( #203, #98, ( #284 ) ) ;
#160 = DATE_AND_TIME ( #23, #156 ) ;
#161 = EDGE_LOOP ( 'NONE', ( #228 ) ) ;
#162 = LOCAL_TIME ( 11, 23, 1.000000000000000000, #274 ) ;
#163 = EDGE_CURVE ( 'NONE', #13, #13, #37, .T. ) ;
#164 = CARTESIAN_POINT ( 'NONE',  ( 4.888073874380386697E-15, -1.626303258728256651E-16, 1.399999999999999911 ) ) ;
#165 = DIRECTION ( 'NONE',  ( -3.491481338843133355E-15, 1.227056696963693029E-16, -1.000000000000000000 ) ) ;
#166 = ORIENTED_EDGE ( 'NONE', *, *, #218, .F. ) ;
#167 = FACE_OUTER_BOUND ( 'NONE', #250, .T. ) ;
#168 = FACE_BOUND ( 'NONE', #161, .T. ) ;
#169 =( GEOMETRIC_REPRESENTATION_CONTEXT ( 3 ) GLOBAL_UNCERTAINTY_ASSIGNED_CONTEXT ( ( #138 ) ) GLOBAL_UNIT_ASSIGNED_CONTEXT ( ( #249, #51, #48 ) ) REPRESENTATION_CONTEXT ( 'NONE', 'WORKASPACE' ) );
#170 = DIRECTION ( 'NONE',  ( -3.491481338843133355E-15, 1.227056696963693029E-16, -1.000000000000000000 ) ) ;
#171 = DIRECTION ( 'NONE',  ( -3.491481338843133355E-15, 1.227056696963693029E-16, -1.000000000000000000 ) ) ;
#172 = DIRECTION ( 'NONE',  ( 0.0000000000000000000, 1.000000000000000000, 0.0000000000000000000 ) ) ;
#173 = CC_DESIGN_PERSON_AND_ORGANIZATION_ASSIGNMENT ( #27, #222, ( #92 ) ) ;
#174 = AXIS2_PLACEMENT_3D ( 'NONE', #279, #211, #257 ) ;
#175 = DIRECTION ( 'NONE',  ( 0.0000000000000000000, 1.000000000000000000, 0.0000000000000000000 ) ) ;
#176 = VERTEX_POINT ( 'NONE', #248 ) ;
#177 = PERSON_AND_ORGANIZATION_ROLE ( 'classification_officer' ) ;
#178 = ORGANIZATION ( 'UNSPECIFIED', 'UNSPECIFIED', '' ) ;
#179 = EDGE_LOOP ( 'NONE', ( #118 ) ) ;
#180 = APPROVAL_ROLE ( '' ) ;
#181 = EDGE_LOOP ( 'NONE', ( #8 ) ) ;
#182 = AXIS2_PLACEMENT_3D ( 'NONE', #40, #41, #193 ) ;
#183 = DATE_AND_TIME ( #137, #21 ) ;
#184 = EDGE_LOOP ( 'NONE', ( #272 ) ) ;
#185 = EDGE_LOOP ( 'NONE', ( #80 ) ) ;
#186 = DIRECTION ( 'NONE',  ( -4.284245559151227911E-31, -1.000000000000000000, -1.227056696963693029E-16 ) ) ;
#187 = CIRCLE ( 'NONE', #81, 0.4499999999999999556 ) ;
#188 = CARTESIAN_POINT ( 'NONE',  ( 2.789689482689513687E-14, -9.712592457792546177E-16, 7.989988236952308753 ) ) ;
#189 = CARTESIAN_POINT ( 'NONE',  ( 1.047444401652940007E-14, -3.589593973870165597E-16, 3.000000000000000000 ) ) ;
#190 = ADVANCED_FACE ( 'NONE', ( #123, #168 ), #47, .T. ) ;
#191 = VERTEX_POINT ( 'NONE', #64 ) ;
#192 = AXIS2_PLACEMENT_3D ( 'NONE', #127, #290, #87 ) ;
#193 = DIRECTION ( 'NONE',  ( -4.275831445896958607E-31, -1.000000000000000000, -1.224646799147353207E-16 ) ) ;
#194 = DIRECTION ( 'NONE',  ( 0.0000000000000000000, 1.000000000000000000, 0.0000000000000000000 ) ) ;
#195 = CARTESIAN_POINT ( 'NONE',  ( 1.312796983405018142E-13, -4.604575568881394032E-15, 37.59999999999999432 ) ) ;
#196 = AXIS2_PLACEMENT_3D ( 'NONE', #12, #165, #209 ) ;
#197 = FACE_BOUND ( 'NONE', #122, .T. ) ;
#198 = DIRECTION ( 'NONE',  ( 0.0000000000000000000, 0.0000000000000000000, 1.000000000000000000 ) ) ;
#199 = ORIENTED_EDGE ( 'NONE', *, *, #121, .F. ) ;
#200 = PERSON_AND_ORGANIZATION ( #3, #178 ) ;
#201 = AXIS2_PLACEMENT_3D ( 'NONE', #280, #230, #101 ) ;
#202 = EDGE_LOOP ( 'NONE', ( #166 ) ) ;
#203 = PERSON_AND_ORGANIZATION ( #3, #178 ) ;
#204 = PRODUCT_RELATED_PRODUCT_CATEGORY ( 'detail', '', ( #92 ) ) ;
#205 = CALENDAR_DATE ( 2022, 11, 1 ) ;
#206 = CLOSED_SHELL ( 'NONE', ( #251, #268, #152 ) ) ;
#207 = FACE_OUTER_BOUND ( 'NONE', #181, .T. ) ;
#208 = AXIS2_PLACEMENT_3D ( 'NONE', #88, #216, #219 ) ;
#209 = DIRECTION ( 'NONE',  ( 0.0000000000000000000, 1.000000000000000000, 0.0000000000000000000 ) ) ;
#210 = ADVANCED_FACE ( 'NONE', ( #197, #244 ), #132, .T. ) ;
#211 = DIRECTION ( 'NONE',  ( -3.491481338843133355E-15, 1.227056696963693029E-16, -1.000000000000000000 ) ) ;
#212 = FACE_OUTER_BOUND ( 'NONE', #9, .T. ) ;
#213 = AXIS2_PLACEMENT_3D ( 'NONE', #195, #65, #194 ) ;
#214 = DIRECTION ( 'NONE',  ( -3.491481338843133355E-15, 1.227056696963693029E-16, -1.000000000000000000 ) ) ;
#215 = FACE_BOUND ( 'NONE', #184, .T. ) ;
#216 = DIRECTION ( 'NONE',  ( -3.491481338843133355E-15, 1.227056696963693029E-16, -1.000000000000000000 ) ) ;
#217 = DIRECTION ( 'NONE',  ( 4.275831445896958607E-31, 1.000000000000000000, 1.224646799147353207E-16 ) ) ;
#218 = EDGE_CURVE ( 'NONE', #191, #191, #99, .T. ) ;
#219 = DIRECTION ( 'NONE',  ( 3.930469274259665087E-31, 1.000000000000000000, 1.106328747434188221E-16 ) ) ;
#220 = FACE_OUTER_BOUND ( 'NONE', #179, .T. ) ;
#221 = AXIS2_PLACEMENT_3D ( 'NONE', #285, #83, #261 ) ;
#222 = PERSON_AND_ORGANIZATION_ROLE ( 'design_owner' ) ;
#223 = EDGE_CURVE ( 'NONE', #86, #86, #187, .T. ) ;
#224 = APPLICATION_PROTOCOL_DEFINITION ( 'international standard', 'config_control_design', 1994, #286 ) ;
#225 = CC_DESIGN_PERSON_AND_ORGANIZATION_ASSIGNMENT ( #69, #252, ( #294 ) ) ;
#226 = VERTEX_POINT ( 'NONE', #157 ) ;
#227 = AXIS2_PLACEMENT_3D ( 'NONE', #234, #141, #105 ) ;
#228 = ORIENTED_EDGE ( 'NONE', *, *, #255, .F. ) ;
#229 = ORIENTED_EDGE ( 'NONE', *, *, #121, .T. ) ;
#230 = DIRECTION ( 'NONE',  ( -3.491481338843133355E-15, 1.227056696963693029E-16, -1.000000000000000000 ) ) ;
#231 = DIRECTION ( 'NONE',  ( 3.851859888774478275E-31, 1.000000000000000000, 1.084202172485506283E-16 ) ) ;
#232 = LOCAL_TIME ( 11, 23, 1.000000000000000000, #269 ) ;
#233 = ADVANCED_FACE ( 'NONE', ( #128, #146 ), #111, .T. ) ;
#234 = CARTESIAN_POINT ( 'NONE',  ( 3.316907271900976056E-14, -1.156546250413416869E-15, 9.500000000000000000 ) ) ;
#235 = ORIENTED_EDGE ( 'NONE', *, *, #163, .T. ) ;
#236 = APPROVAL ( #302, 'UNSPECIFIED' ) ;
#237 = DIRECTION ( 'NONE',  ( -3.491481338843133355E-15, 1.224646799147353207E-16, -1.000000000000000000 ) ) ;
#238 = AXIS2_PLACEMENT_3D ( 'NONE', #263, #171, #110 ) ;
#239 = FACE_OUTER_BOUND ( 'NONE', #30, .T. ) ;
#240 = CARTESIAN_POINT ( 'NONE',  ( 4.888073874380386697E-15, 0.4499999999999997891, 1.399999999999999911 ) ) ;
#241 = FACE_BOUND ( 'NONE', #202, .T. ) ;
#242 = AXIS2_PLACEMENT_3D ( 'NONE', #295, #170, #175 ) ;
#243 = CARTESIAN_POINT ( 'NONE',  ( 3.316907271900976056E-14, 1.999999999999995337, 9.500000000000000000 ) ) ;
#244 = FACE_OUTER_BOUND ( 'NONE', #136, .T. ) ;
#245 = ADVANCED_FACE ( 'NONE', ( #151, #215 ), #148, .T. ) ;
#246 = APPROVAL_DATE_TIME ( #154, #236 ) ;
#247 = AXIS2_PLACEMENT_3D ( 'NONE', #189, #84, #264 ) ;
#248 = CARTESIAN_POINT ( 'NONE',  ( 4.888073874380386697E-15, 0.4499999999999997891, 1.399999999999999911 ) ) ;
#249 =( LENGTH_UNIT ( ) NAMED_UNIT ( * ) SI_UNIT ( .MILLI., .METRE. ) );
#250 = EDGE_LOOP ( 'NONE', ( #56 ) ) ;
#251 = ADVANCED_FACE ( 'NONE', ( #239 ), #145, .F. ) ;
#252 = PERSON_AND_ORGANIZATION_ROLE ( 'creator' ) ;
#253 = LOCAL_TIME ( 11, 23, 1.000000000000000000, #96 ) ;
#254 = EDGE_LOOP ( 'NONE', ( #74 ) ) ;
#255 = EDGE_CURVE ( 'NONE', #226, #226, #283, .T. ) ;
#256 = ORIENTED_EDGE ( 'NONE', *, *, #91, .F. ) ;
#257 = DIRECTION ( 'NONE',  ( 0.0000000000000000000, 1.000000000000000000, 0.0000000000000000000 ) ) ;
#258 = APPROVAL_PERSON_ORGANIZATION ( #200, #236, #271 ) ;
#259 = ORIENTED_EDGE ( 'NONE', *, *, #301, .F. ) ;
#260 = ADVANCED_FACE ( 'NONE', ( #220, #241 ), #126, .T. ) ;
#261 = DIRECTION ( 'NONE',  ( -4.275831445896958607E-31, -1.000000000000000000, -1.224646799147353207E-16 ) ) ;
#262 = CARTESIAN_POINT ( 'NONE',  ( 4.888073874380386697E-15, -1.714505518806294391E-16, 1.399999999999999911 ) ) ;
#263 = CARTESIAN_POINT ( 'NONE',  ( 4.888073874380386697E-15, -1.626303258728256651E-16, 1.399999999999999911 ) ) ;
#264 = DIRECTION ( 'NONE',  ( 0.0000000000000000000, -1.000000000000000000, 0.0000000000000000000 ) ) ;
#265 = EDGE_CURVE ( 'NONE', #176, #176, #26, .T. ) ;
#266 = DIRECTION ( 'NONE',  ( -3.491481338843133355E-15, 1.227056696963693029E-16, -1.000000000000000000 ) ) ;
#267 = FACE_OUTER_BOUND ( 'NONE', #116, .T. ) ;
#268 = ADVANCED_FACE ( 'NONE', ( #267, #292 ), #15, .T. ) ;
#269 = COORDINATED_UNIVERSAL_TIME_OFFSET ( 1, 0, .AHEAD. ) ;
#270 = CALENDAR_DATE ( 2022, 11, 1 ) ;
#271 = APPROVAL_ROLE ( '' ) ;
#272 = ORIENTED_EDGE ( 'NONE', *, *, #131, .F. ) ;
#273 = CC_DESIGN_PERSON_AND_ORGANIZATION_ASSIGNMENT ( #2, #177, ( #277 ) ) ;
#274 = COORDINATED_UNIVERSAL_TIME_OFFSET ( 1, 0, .AHEAD. ) ;
#275 = EDGE_LOOP ( 'NONE', ( #298 ) ) ;
#276 = MANIFOLD_SOLID_BREP ( 'Corps-Déplacer/Copier3[1]', #108 ) ;
#277 = SECURITY_CLASSIFICATION ( '', '', #28 ) ;
#278 = EDGE_LOOP ( 'NONE', ( #60 ) ) ;
#279 = CARTESIAN_POINT ( 'NONE',  ( 1.326762908760390423E-13, -4.653657836759941941E-15, 38.00000000000000000 ) ) ;
#280 = CARTESIAN_POINT ( 'NONE',  ( 4.888073874380386697E-15, 0.4499999999999997891, 1.399999999999999911 ) ) ;
#281 = MANIFOLD_SOLID_BREP ( 'Corps-Déplacer/Copier3[2]', #206 ) ;
#282 = DIRECTION ( 'NONE',  ( 0.0000000000000000000, 1.000000000000000000, 0.0000000000000000000 ) ) ;
#283 = CIRCLE ( 'NONE', #242, 0.8350000000000000755 ) ;
#284 = PRODUCT_DEFINITION ( 'UNKNOWN', '', #294, #29 ) ;
#285 = CARTESIAN_POINT ( 'NONE',  ( 4.888073874380386697E-15, 3.374459510989177565E-33, 1.399999999999999911 ) ) ;
#286 = APPLICATION_CONTEXT ( 'configuration controlled 3d designs of mechanical parts and assemblies' ) ;
#287 = FACE_OUTER_BOUND ( 'NONE', #278, .T. ) ;
#288 = DIRECTION ( 'NONE',  ( -3.491481338843133355E-15, 1.224646799147353207E-16, -1.000000000000000000 ) ) ;
#289 = CC_DESIGN_APPROVAL ( #236, ( #284 ) ) ;
#290 = DIRECTION ( 'NONE',  ( -3.491481338843133355E-15, 1.227056696963693029E-16, -1.000000000000000000 ) ) ;
#291 = DIRECTION ( 'NONE',  ( 0.0000000000000000000, 1.000000000000000000, 0.0000000000000000000 ) ) ;
#292 = FACE_OUTER_BOUND ( 'NONE', #143, .T. ) ;
#293 = CC_DESIGN_DATE_AND_TIME_ASSIGNMENT ( #70, #155, ( #277 ) ) ;
#294 = PRODUCT_DEFINITION_FORMATION_WITH_SPECIFIED_SOURCE ( 'ANY', '', #92, .NOT_KNOWN. ) ;
#295 = CARTESIAN_POINT ( 'NONE',  ( 1.047444401652940007E-14, -3.589593973870165597E-16, 3.000000000000000000 ) ) ;
#296 = PERSON_AND_ORGANIZATION ( #3, #178 ) ;
#297 = DIRECTION ( 'NONE',  ( 1.000000000000000000, 0.0000000000000000000, 0.0000000000000000000 ) ) ;
#298 = ORIENTED_EDGE ( 'NONE', *, *, #91, .T. ) ;
#299 = AXIS2_PLACEMENT_3D ( 'NONE', #49, #198, #297 ) ;
#300 = PRODUCT_DEFINITION_SHAPE ( 'NONE', 'NONE',  #284 ) ;
#301 = EDGE_CURVE ( 'NONE', #1, #1, #114, .T. ) ;
#302 = APPROVAL_STATUS ( 'not_yet_approved' ) ;
#303 = EDGE_LOOP ( 'NONE', ( #94 ) ) ;
ENDSEC;
END-ISO-10303-21;
