ISO-10303-21;
HEADER;
FILE_DESCRIPTION (( 'STEP AP203' ),
    '1' );
FILE_NAME ('381949.step',
    '2022-01-11T10:23:01',
    ( '' ),
    ( '' ),
    'SwSTEP 2.0',
    'SolidWorks 2019',
    '' );
FILE_SCHEMA (( 'CONFIG_CONTROL_DESIGN' ));
ENDSEC;

DATA;
#1 = PRODUCT_RELATED_PRODUCT_CATEGORY ( 'detail', '', ( #306 ) ) ;
#2 = DIRECTION ( 'NONE',  ( 3.491481338843133355E-15, -1.220387910567151280E-16, 1.000000000000000000 ) ) ;
#3 = CYLINDRICAL_SURFACE ( 'NONE', #239, 0.3999999999999999667 ) ;
#4 = CC_DESIGN_DATE_AND_TIME_ASSIGNMENT ( #153, #74, ( #217 ) ) ;
#5 = MECHANICAL_CONTEXT ( 'NONE', #56, 'mechanical' ) ;
#6 = DATE_AND_TIME ( #101, #111 ) ;
#7 = EDGE_LOOP ( 'NONE', ( #250 ) ) ;
#8 = CONICAL_SURFACE ( 'NONE', #229, 1.999999999999997113, 0.7853981633974433940 ) ;
#9 = ORIENTED_EDGE ( 'NONE', *, *, #161, .T. ) ;
#10 = CARTESIAN_POINT ( 'NONE',  ( 0.0000000000000000000, 0.0000000000000000000, 0.0000000000000000000 ) ) ;
#11 = AXIS2_PLACEMENT_3D ( 'NONE', #164, #321, #142 ) ;
#12 = CARTESIAN_POINT ( 'NONE',  ( -7.483071192938673325E-32, 2.624708052216183351E-33, -2.143236771650085065E-17 ) ) ;
#13 = FACE_OUTER_BOUND ( 'NONE', #298, .T. ) ;
#14 = DIRECTION ( 'NONE',  ( -3.491481338843133355E-15, 1.220387910567151280E-16, -1.000000000000000000 ) ) ;
#15 = APPROVAL_STATUS ( 'not_yet_approved' ) ;
#16 = EDGE_CURVE ( 'NONE', #91, #91, #121, .T. ) ;
#17 = CARTESIAN_POINT ( 'NONE',  ( 3.316907271900976688E-14, -1.175552291643561052E-15, 9.500000000000001776 ) ) ;
#18 = CARTESIAN_POINT ( 'NONE',  ( 4.189777606611759237E-15, 0.3999999999999998002, 1.199999999999999956 ) ) ;
#19 = FACE_OUTER_BOUND ( 'NONE', #103, .T. ) ;
#20 = ADVANCED_BREP_SHAPE_REPRESENTATION ( '381949', ( #186, #286, #202 ), #279 ) ;
#21 = FACE_OUTER_BOUND ( 'NONE', #132, .T. ) ;
#22 = ADVANCED_FACE ( 'NONE', ( #13, #86 ), #261, .T. ) ;
#23 = CARTESIAN_POINT ( 'NONE',  ( 1.326762908760390423E-13, -4.653657836759941941E-15, 38.00000000000000000 ) ) ;
#24 = DESIGN_CONTEXT ( 'detailed design', #84, 'design' ) ;
#25 = PLANE ( 'NONE',  #317 ) ;
#26 = PERSON_AND_ORGANIZATION_ROLE ( 'creator' ) ;
#27 = ADVANCED_FACE ( 'NONE', ( #106 ), #214, .F. ) ;
#28 = AXIS2_PLACEMENT_3D ( 'NONE', #44, #216, #267 ) ;
#29 = DIRECTION ( 'NONE',  ( 1.000000000000000000, 0.0000000000000000000, 0.0000000000000000000 ) ) ;
#30 = EDGE_LOOP ( 'NONE', ( #200 ) ) ;
#31 = DATE_AND_TIME ( #171, #303 ) ;
#32 = ORIENTED_EDGE ( 'NONE', *, *, #161, .F. ) ;
#33 = PERSON_AND_ORGANIZATION_ROLE ( 'design_owner' ) ;
#34 = AXIS2_PLACEMENT_3D ( 'NONE', #49, #241, #220 ) ;
#35 = ORIENTED_EDGE ( 'NONE', *, *, #108, .F. ) ;
#36 = ORIENTED_EDGE ( 'NONE', *, *, #254, .F. ) ;
#37 = DATE_AND_TIME ( #131, #223 ) ;
#38 = DIRECTION ( 'NONE',  ( 4.260961615894971294E-31, 1.000000000000000000, 1.220387910567151280E-16 ) ) ;
#39 = AXIS2_PLACEMENT_3D ( 'NONE', #109, #43, #180 ) ;
#40 = CC_DESIGN_APPROVAL ( #169, ( #172 ) ) ;
#41 = DIRECTION ( 'NONE',  ( 3.491481338843133355E-15, -1.220387910567151280E-16, 1.000000000000000000 ) ) ;
#42 = EDGE_LOOP ( 'NONE', ( #60 ) ) ;
#43 = DIRECTION ( 'NONE',  ( 3.491481338843133355E-15, -1.220387910567151280E-16, 1.000000000000000000 ) ) ;
#44 = CARTESIAN_POINT ( 'NONE',  ( 4.189777606611758449E-15, -1.626303258728249009E-16, 1.199999999999999734 ) ) ;
#45 = CC_DESIGN_SECURITY_CLASSIFICATION ( #217, ( #172 ) ) ;
#46 = DIRECTION ( 'NONE',  ( 3.491481338843133355E-15, -1.220387910567151280E-16, 1.000000000000000000 ) ) ;
#47 = DIRECTION ( 'NONE',  ( 4.275831445896958607E-31, 1.000000000000000000, 1.224646799147353207E-16 ) ) ;
#48 = ADVANCED_FACE ( 'NONE', ( #81 ), #184, .F. ) ;
#49 = CARTESIAN_POINT ( 'NONE',  ( 2.789689482689513687E-14, -9.912722815998014520E-16, 7.989988236952308753 ) ) ;
#50 = APPROVAL_PERSON_ORGANIZATION ( #55, #275, #297 ) ;
#51 = DIRECTION ( 'NONE',  ( 0.0000000000000000000, -1.000000000000000000, 0.0000000000000000000 ) ) ;
#52 = APPROVAL_ROLE ( '' ) ;
#53 = APPLICATION_PROTOCOL_DEFINITION ( 'international standard', 'config_control_design', 1994, #56 ) ;
#54 = ORIENTED_EDGE ( 'NONE', *, *, #197, .T. ) ;
#55 = PERSON_AND_ORGANIZATION ( #299, #139 ) ;
#56 = APPLICATION_CONTEXT ( 'configuration controlled 3d designs of mechanical parts and assemblies' ) ;
#57 = PERSON_AND_ORGANIZATION ( #299, #139 ) ;
#58 = ORIENTED_EDGE ( 'NONE', *, *, #149, .T. ) ;
#59 = ADVANCED_FACE ( 'NONE', ( #137 ), #312, .F. ) ;
#60 = ORIENTED_EDGE ( 'NONE', *, *, #128, .T. ) ;
#61 = DIRECTION ( 'NONE',  ( -4.321314557720561049E-31, -1.000000000000000000, -1.220387910567151280E-16 ) ) ;
#62 = AXIS2_PLACEMENT_3D ( 'NONE', #83, #232, #61 ) ;
#63 = FACE_BOUND ( 'NONE', #255, .T. ) ;
#64 = CARTESIAN_POINT ( 'NONE',  ( 1.047444401652940953E-14, -3.823001497749132258E-16, 3.000000000000002665 ) ) ;
#65 = FACE_OUTER_BOUND ( 'NONE', #305, .T. ) ;
#66 = FACE_OUTER_BOUND ( 'NONE', #100, .T. ) ;
#67 = EDGE_CURVE ( 'NONE', #194, #194, #283, .T. ) ;
#68 = CARTESIAN_POINT ( 'NONE',  ( -1.496614238587734665E-31, 5.249416104432366703E-33, -4.286473543300170131E-17 ) ) ;
#69 = DIRECTION ( 'NONE',  ( -4.275831445896958607E-31, -1.000000000000000000, -1.224646799147353207E-16 ) ) ;
#70 = VERTEX_POINT ( 'NONE', #296 ) ;
#71 = AXIS2_PLACEMENT_3D ( 'NONE', #162, #263, #182 ) ;
#72 = ADVANCED_FACE ( 'NONE', ( #65, #63 ), #189, .T. ) ;
#73 = VERTEX_POINT ( 'NONE', #168 ) ;
#74 = DATE_TIME_ROLE ( 'classification_date' ) ;
#75 = PERSON_AND_ORGANIZATION_ROLE ( 'creator' ) ;
#76 = ORIENTED_EDGE ( 'NONE', *, *, #278, .T. ) ;
#77 = COORDINATED_UNIVERSAL_TIME_OFFSET ( 1, 0, .AHEAD. ) ;
#78 =( LENGTH_UNIT ( ) NAMED_UNIT ( * ) SI_UNIT ( .MILLI., .METRE. ) );
#79 = ADVANCED_FACE ( 'NONE', ( #133, #212 ), #8, .T. ) ;
#80 = CC_DESIGN_APPROVAL ( #104, ( #217 ) ) ;
#81 = FACE_OUTER_BOUND ( 'NONE', #302, .T. ) ;
#82 = DIRECTION ( 'NONE',  ( 0.0000000000000000000, -1.000000000000000000, 0.0000000000000000000 ) ) ;
#83 = CARTESIAN_POINT ( 'NONE',  ( 6.982962677686266711E-15, -4.336808689942017736E-16, 2.000000000000000000 ) ) ;
#84 = APPLICATION_CONTEXT ( 'configuration controlled 3d designs of mechanical parts and assemblies' ) ;
#85 = CIRCLE ( 'NONE', #166, 0.6679491924311228290 ) ;
#86 = FACE_OUTER_BOUND ( 'NONE', #272, .T. ) ;
#87 = FACE_OUTER_BOUND ( 'NONE', #176, .T. ) ;
#88 = CARTESIAN_POINT ( 'NONE',  ( 2.789689482689513687E-14, -1.960000000000000853, 7.989988236952308753 ) ) ;
#89 = CARTESIAN_POINT ( 'NONE',  ( 1.312796983405018142E-13, -4.604842320337255071E-15, 37.59999999999999432 ) ) ;
#90 = DIRECTION ( 'NONE',  ( -4.260961615894971294E-31, -1.000000000000000000, -1.220387910567151280E-16 ) ) ;
#91 = VERTEX_POINT ( 'NONE', #145 ) ;
#92 = ADVANCED_FACE ( 'NONE', ( #210, #209 ), #313, .T. ) ;
#93 = VERTEX_POINT ( 'NONE', #167 ) ;
#94 = CIRCLE ( 'NONE', #34, 1.959999999999999964 ) ;
#95 = APPROVAL_DATE_TIME ( #31, #275 ) ;
#96 = EDGE_LOOP ( 'NONE', ( #76 ) ) ;
#97 = APPLICATION_PROTOCOL_DEFINITION ( 'international standard', 'config_control_design', 1994, #84 ) ;
#98 = ORIENTED_EDGE ( 'NONE', *, *, #67, .T. ) ;
#99 = APPROVAL_DATE_TIME ( #6, #169 ) ;
#100 = EDGE_LOOP ( 'NONE', ( #280 ) ) ;
#101 = CALENDAR_DATE ( 2022, 11, 1 ) ;
#102 = APPROVAL_STATUS ( 'not_yet_approved' ) ;
#103 = EDGE_LOOP ( 'NONE', ( #98 ) ) ;
#104 = APPROVAL ( #15, 'UNSPECIFIED' ) ;
#105 = DIRECTION ( 'NONE',  ( -3.491481338843133355E-15, 1.224646799147353207E-16, -1.000000000000000000 ) ) ;
#106 = FACE_OUTER_BOUND ( 'NONE', #227, .T. ) ;
#107 = CARTESIAN_POINT ( 'NONE',  ( 4.189777606611759237E-15, 0.3999999999999998002, 1.199999999999999956 ) ) ;
#108 = EDGE_CURVE ( 'NONE', #70, #70, #85, .T. ) ;
#109 = CARTESIAN_POINT ( 'NONE',  ( 1.047444401652940953E-14, -3.823001497749132258E-16, 3.000000000000002665 ) ) ;
#110 = APPROVAL_ROLE ( '' ) ;
#111 = LOCAL_TIME ( 11, 23, 1.000000000000000000, #175 ) ;
#112 = CARTESIAN_POINT ( 'NONE',  ( 1.326762908760390423E-13, -4.653657836759941941E-15, 38.00000000000000000 ) ) ;
#113 = VERTEX_POINT ( 'NONE', #215 ) ;
#114 = CC_DESIGN_PERSON_AND_ORGANIZATION_ASSIGNMENT ( #198, #173, ( #217 ) ) ;
#115 = DIRECTION ( 'NONE',  ( 0.0000000000000000000, -1.000000000000000000, 0.0000000000000000000 ) ) ;
#116 = LOCAL_TIME ( 11, 23, 1.000000000000000000, #276 ) ;
#117 = CARTESIAN_POINT ( 'NONE',  ( 1.326762908760390423E-13, -4.653657836759941941E-15, 38.00000000000000000 ) ) ;
#118 = PLANE ( 'NONE',  #236 ) ;
#119 = CARTESIAN_POINT ( 'NONE',  ( 4.189777606611759237E-15, 2.999519565323712479E-33, 1.199999999999999956 ) ) ;
#120 = SECURITY_CLASSIFICATION_LEVEL ( 'unclassified' ) ;
#121 = CIRCLE ( 'NONE', #235, 1.959999999999999964 ) ;
#122 = CC_DESIGN_APPROVAL ( #275, ( #251 ) ) ;
#123 =( NAMED_UNIT ( * ) PLANE_ANGLE_UNIT ( ) SI_UNIT ( $, .RADIAN. ) );
#124 = ADVANCED_FACE ( 'NONE', ( #87, #181 ), #208, .F. ) ;
#125 = ORIENTED_EDGE ( 'NONE', *, *, #16, .T. ) ;
#126 = EDGE_LOOP ( 'NONE', ( #203 ) ) ;
#127 = AXIS2_PLACEMENT_3D ( 'NONE', #119, #265, #69 ) ;
#128 = EDGE_CURVE ( 'NONE', #93, #93, #213, .T. ) ;
#129 =( NAMED_UNIT ( * ) SI_UNIT ( $, .STERADIAN. ) SOLID_ANGLE_UNIT ( ) );
#130 = ORIENTED_EDGE ( 'NONE', *, *, #158, .T. ) ;
#131 = CALENDAR_DATE ( 2022, 11, 1 ) ;
#132 = EDGE_LOOP ( 'NONE', ( #199 ) ) ;
#133 = FACE_BOUND ( 'NONE', #277, .T. ) ;
#134 = CIRCLE ( 'NONE', #71, 0.3999999999999999667 ) ;
#135 = DIRECTION ( 'NONE',  ( 3.491481338843133355E-15, -1.220387910567151280E-16, 1.000000000000000000 ) ) ;
#136 = CC_DESIGN_PERSON_AND_ORGANIZATION_ASSIGNMENT ( #57, #205, ( #172 ) ) ;
#137 = FACE_OUTER_BOUND ( 'NONE', #253, .T. ) ;
#138 = ORIENTED_EDGE ( 'NONE', *, *, #16, .F. ) ;
#139 = ORGANIZATION ( 'UNSPECIFIED', 'UNSPECIFIED', '' ) ;
#140 = CARTESIAN_POINT ( 'NONE',  ( 1.047444401652940953E-14, -0.8350000000000001865, 3.000000000000002665 ) ) ;
#141 = DIRECTION ( 'NONE',  ( 0.0000000000000000000, -1.000000000000000000, 0.0000000000000000000 ) ) ;
#142 = DIRECTION ( 'NONE',  ( 0.0000000000000000000, -1.000000000000000000, 0.0000000000000000000 ) ) ;
#143 = CIRCLE ( 'NONE', #183, 0.3999999999999998002 ) ;
#144 = DIRECTION ( 'NONE',  ( 3.491481338843133355E-15, -1.220387910567151280E-16, 1.000000000000000000 ) ) ;
#145 = CARTESIAN_POINT ( 'NONE',  ( 3.316907271900976688E-14, -1.960000000000001297, 9.500000000000001776 ) ) ;
#146 = VERTEX_POINT ( 'NONE', #248 ) ;
#147 = UNCERTAINTY_MEASURE_WITH_UNIT (LENGTH_MEASURE( 1.000000000000000082E-05 ), #78, 'distance_accuracy_value', 'NONE');
#148 = VERTEX_POINT ( 'NONE', #252 ) ;
#149 = EDGE_CURVE ( 'NONE', #269, #269, #134, .T. ) ;
#150 = ORIENTED_EDGE ( 'NONE', *, *, #300, .T. ) ;
#151 = CIRCLE ( 'NONE', #28, 0.3999999999999999667 ) ;
#152 = EDGE_LOOP ( 'NONE', ( #130 ) ) ;
#153 = DATE_AND_TIME ( #204, #295 ) ;
#154 = CLOSED_SHELL ( 'NONE', ( #48, #22, #185 ) ) ;
#155 = EDGE_LOOP ( 'NONE', ( #231 ) ) ;
#156 = DIRECTION ( 'NONE',  ( 0.0000000000000000000, -1.000000000000000000, 0.0000000000000000000 ) ) ;
#157 = DIRECTION ( 'NONE',  ( 3.491481338843133355E-15, -1.220387910567151280E-16, 1.000000000000000000 ) ) ;
#158 = EDGE_CURVE ( 'NONE', #73, #73, #151, .T. ) ;
#159 = DIRECTION ( 'NONE',  ( 3.491481338843133355E-15, -1.220387910567151280E-16, 1.000000000000000000 ) ) ;
#160 = DIRECTION ( 'NONE',  ( -4.260961615894971294E-31, -1.000000000000000000, -1.220387910567151280E-16 ) ) ;
#161 = EDGE_CURVE ( 'NONE', #270, #270, #243, .T. ) ;
#162 = CARTESIAN_POINT ( 'NONE',  ( 4.189777606611759237E-15, -1.469576158976823553E-16, 1.199999999999999956 ) ) ;
#163 = DIRECTION ( 'NONE',  ( 3.491481338843133355E-15, -1.220387910567151280E-16, 1.000000000000000000 ) ) ;
#164 = CARTESIAN_POINT ( 'NONE',  ( 1.326762908760390423E-13, -4.653657836759941941E-15, 38.00000000000000000 ) ) ;
#165 = DIRECTION ( 'NONE',  ( -4.260961615894971294E-31, -1.000000000000000000, -1.220387910567151280E-16 ) ) ;
#166 = AXIS2_PLACEMENT_3D ( 'NONE', #64, #318, #187 ) ;
#167 = CARTESIAN_POINT ( 'NONE',  ( 6.982962677686273021E-15, -0.4000000000000002998, 2.000000000000001776 ) ) ;
#168 = CARTESIAN_POINT ( 'NONE',  ( 4.189777606611758449E-15, -0.4000000000000001332, 1.199999999999999734 ) ) ;
#169 = APPROVAL ( #102, 'UNSPECIFIED' ) ;
#170 = PERSON_AND_ORGANIZATION ( #299, #139 ) ;
#171 = CALENDAR_DATE ( 2022, 11, 1 ) ;
#172 = PRODUCT_DEFINITION_FORMATION_WITH_SPECIFIED_SOURCE ( 'ANY', '', #306, .NOT_KNOWN. ) ;
#173 = PERSON_AND_ORGANIZATION_ROLE ( 'classification_officer' ) ;
#174 = EDGE_LOOP ( 'NONE', ( #125 ) ) ;
#175 = COORDINATED_UNIVERSAL_TIME_OFFSET ( 1, 0, .AHEAD. ) ;
#176 = EDGE_LOOP ( 'NONE', ( #35 ) ) ;
#177 = DIRECTION ( 'NONE',  ( 0.0000000000000000000, 0.0000000000000000000, 1.000000000000000000 ) ) ;
#178 = ORIENTED_EDGE ( 'NONE', *, *, #158, .F. ) ;
#179 = APPROVAL_DATE_TIME ( #37, #104 ) ;
#180 = DIRECTION ( 'NONE',  ( 0.0000000000000000000, -1.000000000000000000, 0.0000000000000000000 ) ) ;
#181 = FACE_OUTER_BOUND ( 'NONE', #42, .T. ) ;
#182 = DIRECTION ( 'NONE',  ( 0.0000000000000000000, 1.000000000000000000, 0.0000000000000000000 ) ) ;
#183 = AXIS2_PLACEMENT_3D ( 'NONE', #68, #266, #47 ) ;
#184 = PLANE ( 'NONE',  #257 ) ;
#185 = ADVANCED_FACE ( 'NONE', ( #66 ), #293, .T. ) ;
#186 = MANIFOLD_SOLID_BREP ( 'Corps-Déplacer/Copier4[1]', #310 ) ;
#187 = DIRECTION ( 'NONE',  ( 0.0000000000000000000, -1.000000000000000000, 0.0000000000000000000 ) ) ;
#188 = CARTESIAN_POINT ( 'NONE',  ( 1.047444401652940007E-14, 0.6679491924311223849, 3.000000000000000000 ) ) ;
#189 = CONICAL_SURFACE ( 'NONE', #39, 0.8349999999999998535, 0.2217440814658728776 ) ;
#190 = APPROVAL_PERSON_ORGANIZATION ( #170, #104, #110 ) ;
#191 = DIRECTION ( 'NONE',  ( 0.0000000000000000000, -1.000000000000000000, 0.0000000000000000000 ) ) ;
#192 = CC_DESIGN_PERSON_AND_ORGANIZATION_ASSIGNMENT ( #228, #26, ( #251 ) ) ;
#193 = FACE_OUTER_BOUND ( 'NONE', #152, .T. ) ;
#194 = VERTEX_POINT ( 'NONE', #294 ) ;
#195 = AXIS2_PLACEMENT_3D ( 'NONE', #244, #163, #115 ) ;
#196 = CARTESIAN_POINT ( 'NONE',  ( 3.316907271900976056E-14, 1.999999999999995337, 9.500000000000000000 ) ) ;
#197 = EDGE_CURVE ( 'NONE', #113, #113, #274, .T. ) ;
#198 = PERSON_AND_ORGANIZATION ( #299, #139 ) ;
#199 = ORIENTED_EDGE ( 'NONE', *, *, #67, .F. ) ;
#200 = ORIENTED_EDGE ( 'NONE', *, *, #254, .T. ) ;
#201 = CARTESIAN_POINT ( 'NONE',  ( 0.0000000000000000000, 0.0000000000000000000, 0.0000000000000000000 ) ) ;
#202 = AXIS2_PLACEMENT_3D ( 'NONE', #201, #177, #29 ) ;
#203 = ORIENTED_EDGE ( 'NONE', *, *, #108, .T. ) ;
#204 = CALENDAR_DATE ( 2022, 11, 1 ) ;
#205 = PERSON_AND_ORGANIZATION_ROLE ( 'design_supplier' ) ;
#206 = ORIENTED_EDGE ( 'NONE', *, *, #197, .F. ) ;
#207 = DIRECTION ( 'NONE',  ( -3.491481338843133355E-15, 1.220387910567151280E-16, -1.000000000000000000 ) ) ;
#208 = TOROIDAL_SURFACE ( 'NONE', #62, 2.400000000000000355, 2.000000000000000000 ) ;
#209 = FACE_OUTER_BOUND ( 'NONE', #30, .T. ) ;
#210 = FACE_OUTER_BOUND ( 'NONE', #225, .T. ) ;
#211 = CC_DESIGN_PERSON_AND_ORGANIZATION_ASSIGNMENT ( #249, #33, ( #306 ) ) ;
#212 = FACE_OUTER_BOUND ( 'NONE', #96, .T. ) ;
#213 = CIRCLE ( 'NONE', #264, 0.4000000000000000222 ) ;
#214 = PLANE ( 'NONE',  #259 ) ;
#215 = CARTESIAN_POINT ( 'NONE',  ( 1.326762908760390423E-13, -1.600000000000000977, 38.00000000000000000 ) ) ;
#216 = DIRECTION ( 'NONE',  ( 3.491481338843133355E-15, -1.220387910567151280E-16, 1.000000000000000000 ) ) ;
#217 = SECURITY_CLASSIFICATION ( '', '', #120 ) ;
#218 = FACE_BOUND ( 'NONE', #174, .T. ) ;
#219 = PRODUCT_DEFINITION_SHAPE ( 'NONE', 'NONE',  #251 ) ;
#220 = DIRECTION ( 'NONE',  ( 0.0000000000000000000, -1.000000000000000000, 0.0000000000000000000 ) ) ;
#221 = FACE_BOUND ( 'NONE', #126, .T. ) ;
#222 = ADVANCED_FACE ( 'NONE', ( #246, #221 ), #118, .F. ) ;
#223 = LOCAL_TIME ( 11, 23, 1.000000000000000000, #260 ) ;
#224 = DATE_AND_TIME ( #226, #116 ) ;
#225 = EDGE_LOOP ( 'NONE', ( #138 ) ) ;
#226 = CALENDAR_DATE ( 2022, 11, 1 ) ;
#227 = EDGE_LOOP ( 'NONE', ( #178 ) ) ;
#228 = PERSON_AND_ORGANIZATION ( #299, #139 ) ;
#229 = AXIS2_PLACEMENT_3D ( 'NONE', #316, #207, #234 ) ;
#230 = CIRCLE ( 'NONE', #268, 1.999999999999997113 ) ;
#231 = ORIENTED_EDGE ( 'NONE', *, *, #278, .F. ) ;
#232 = DIRECTION ( 'NONE',  ( 3.491481338843133355E-15, -1.220387910567151280E-16, 1.000000000000000000 ) ) ;
#233 = CC_DESIGN_PERSON_AND_ORGANIZATION_ASSIGNMENT ( #271, #75, ( #172 ) ) ;
#234 = DIRECTION ( 'NONE',  ( 0.0000000000000000000, 1.000000000000000000, 0.0000000000000000000 ) ) ;
#235 = AXIS2_PLACEMENT_3D ( 'NONE', #17, #159, #156 ) ;
#236 = AXIS2_PLACEMENT_3D ( 'NONE', #188, #46, #165 ) ;
#237 = CARTESIAN_POINT ( 'NONE',  ( 1.326762908760390423E-13, -4.653657836759941941E-15, 38.00000000000000000 ) ) ;
#238 = DIRECTION ( 'NONE',  ( 3.491481338843133355E-15, -1.224646799147353207E-16, 1.000000000000000000 ) ) ;
#239 = AXIS2_PLACEMENT_3D ( 'NONE', #23, #2, #51 ) ;
#240 = FACE_OUTER_BOUND ( 'NONE', #7, .T. ) ;
#241 = DIRECTION ( 'NONE',  ( 3.491481338843133355E-15, -1.220387910567151280E-16, 1.000000000000000000 ) ) ;
#242 = DIRECTION ( 'NONE',  ( 3.491481338843133355E-15, -1.220387910567151280E-16, 1.000000000000000000 ) ) ;
#243 = CIRCLE ( 'NONE', #195, 0.8349999999999998535 ) ;
#244 = CARTESIAN_POINT ( 'NONE',  ( 1.047444401652940953E-14, -3.823001497749132258E-16, 3.000000000000002665 ) ) ;
#245 = ADVANCED_FACE ( 'NONE', ( #292, #19 ), #289, .T. ) ;
#246 = FACE_OUTER_BOUND ( 'NONE', #281, .T. ) ;
#247 = AXIS2_PLACEMENT_3D ( 'NONE', #237, #14, #38 ) ;
#248 = CARTESIAN_POINT ( 'NONE',  ( 2.137183397710479182E-32, 0.3999999999999998002, 6.121136532892404794E-18 ) ) ;
#249 = PERSON_AND_ORGANIZATION ( #299, #139 ) ;
#250 = ORIENTED_EDGE ( 'NONE', *, *, #128, .F. ) ;
#251 = PRODUCT_DEFINITION ( 'UNKNOWN', '', #172, #24 ) ;
#252 = CARTESIAN_POINT ( 'NONE',  ( 1.312796983405018142E-13, -2.000000000000001776, 37.59999999999999432 ) ) ;
#253 = EDGE_LOOP ( 'NONE', ( #54 ) ) ;
#254 = EDGE_CURVE ( 'NONE', #320, #320, #94, .T. ) ;
#255 = EDGE_LOOP ( 'NONE', ( #9 ) ) ;
#256 = DIRECTION ( 'NONE',  ( 3.491481338843133355E-15, -1.220387910567151280E-16, 1.000000000000000000 ) ) ;
#257 = AXIS2_PLACEMENT_3D ( 'NONE', #12, #238, #284 ) ;
#258 = CARTESIAN_POINT ( 'NONE',  ( 6.982962677686273021E-15, -2.602613587181977280E-16, 2.000000000000001776 ) ) ;
#259 = AXIS2_PLACEMENT_3D ( 'NONE', #107, #256, #160 ) ;
#260 = COORDINATED_UNIVERSAL_TIME_OFFSET ( 1, 0, .AHEAD. ) ;
#261 = CYLINDRICAL_SURFACE ( 'NONE', #290, 0.3999999999999998557 ) ;
#262 = CARTESIAN_POINT ( 'NONE',  ( 3.316907271900976688E-14, -1.175552291643561052E-15, 9.500000000000001776 ) ) ;
#263 = DIRECTION ( 'NONE',  ( -3.491481338843133355E-15, 1.224646799147353207E-16, -1.000000000000000000 ) ) ;
#264 = AXIS2_PLACEMENT_3D ( 'NONE', #258, #41, #315 ) ;
#265 = DIRECTION ( 'NONE',  ( 3.491481338843133355E-15, -1.224646799147353207E-16, 1.000000000000000000 ) ) ;
#266 = DIRECTION ( 'NONE',  ( -3.491481338843133355E-15, 1.224646799147353207E-16, -1.000000000000000000 ) ) ;
#267 = DIRECTION ( 'NONE',  ( 0.0000000000000000000, -1.000000000000000000, 0.0000000000000000000 ) ) ;
#268 = AXIS2_PLACEMENT_3D ( 'NONE', #89, #144, #191 ) ;
#269 = VERTEX_POINT ( 'NONE', #18 ) ;
#270 = VERTEX_POINT ( 'NONE', #140 ) ;
#271 = PERSON_AND_ORGANIZATION ( #299, #139 ) ;
#272 = EDGE_LOOP ( 'NONE', ( #58 ) ) ;
#273 = AXIS2_PLACEMENT_3D ( 'NONE', #262, #135, #285 ) ;
#274 = CIRCLE ( 'NONE', #11, 1.599999999999996314 ) ;
#275 = APPROVAL ( #309, 'UNSPECIFIED' ) ;
#276 = COORDINATED_UNIVERSAL_TIME_OFFSET ( 1, 0, .AHEAD. ) ;
#277 = EDGE_LOOP ( 'NONE', ( #206 ) ) ;
#278 = EDGE_CURVE ( 'NONE', #148, #148, #230, .T. ) ;
#279 =( GEOMETRIC_REPRESENTATION_CONTEXT ( 3 ) GLOBAL_UNCERTAINTY_ASSIGNED_CONTEXT ( ( #147 ) ) GLOBAL_UNIT_ASSIGNED_CONTEXT ( ( #78, #123, #129 ) ) REPRESENTATION_CONTEXT ( 'NONE', 'WORKASPACE' ) );
#280 = ORIENTED_EDGE ( 'NONE', *, *, #149, .F. ) ;
#281 = EDGE_LOOP ( 'NONE', ( #32 ) ) ;
#282 = SHAPE_DEFINITION_REPRESENTATION ( #219, #20 ) ;
#283 = CIRCLE ( 'NONE', #273, 1.999999999999996669 ) ;
#284 = DIRECTION ( 'NONE',  ( -4.275831445896958607E-31, -1.000000000000000000, -1.224646799147353207E-16 ) ) ;
#285 = DIRECTION ( 'NONE',  ( 0.0000000000000000000, -1.000000000000000000, 0.0000000000000000000 ) ) ;
#286 = MANIFOLD_SOLID_BREP ( 'Corps-Déplacer/Copier4[2]', #154 ) ;
#287 = DIRECTION ( 'NONE',  ( 4.275831445896958607E-31, 1.000000000000000000, 1.224646799147353207E-16 ) ) ;
#288 = CC_DESIGN_DATE_AND_TIME_ASSIGNMENT ( #224, #304, ( #251 ) ) ;
#289 = CYLINDRICAL_SURFACE ( 'NONE', #311, 1.999999999999996669 ) ;
#290 = AXIS2_PLACEMENT_3D ( 'NONE', #10, #105, #287 ) ;
#291 = APPROVAL_PERSON_ORGANIZATION ( #307, #169, #52 ) ;
#292 = FACE_OUTER_BOUND ( 'NONE', #155, .T. ) ;
#293 = PLANE ( 'NONE',  #127 ) ;
#294 = CARTESIAN_POINT ( 'NONE',  ( 3.316907271900976688E-14, -1.999999999999997780, 9.500000000000001776 ) ) ;
#295 = LOCAL_TIME ( 11, 23, 1.000000000000000000, #77 ) ;
#296 = CARTESIAN_POINT ( 'NONE',  ( 1.047444401652940953E-14, -0.6679491924311232731, 3.000000000000002665 ) ) ;
#297 = APPROVAL_ROLE ( '' ) ;
#298 = EDGE_LOOP ( 'NONE', ( #308 ) ) ;
#299 = PERSON ( 'UNSPECIFIED', 'UNSPECIFIED', 'UNSPECIFIED', ('UNSPECIFIED'), ('UNSPECIFIED'), ('UNSPECIFIED') ) ;
#300 = EDGE_CURVE ( 'NONE', #146, #146, #143, .T. ) ;
#301 = COORDINATED_UNIVERSAL_TIME_OFFSET ( 1, 0, .AHEAD. ) ;
#302 = EDGE_LOOP ( 'NONE', ( #150 ) ) ;
#303 = LOCAL_TIME ( 11, 23, 1.000000000000000000, #301 ) ;
#304 = DATE_TIME_ROLE ( 'creation_date' ) ;
#305 = EDGE_LOOP ( 'NONE', ( #36 ) ) ;
#306 = PRODUCT ( '381949', '381949', '', ( #5 ) ) ;
#307 = PERSON_AND_ORGANIZATION ( #299, #139 ) ;
#308 = ORIENTED_EDGE ( 'NONE', *, *, #300, .F. ) ;
#309 = APPROVAL_STATUS ( 'not_yet_approved' ) ;
#310 = CLOSED_SHELL ( 'NONE', ( #319, #124, #222, #72, #92, #314, #245, #79, #59, #27 ) ) ;
#311 = AXIS2_PLACEMENT_3D ( 'NONE', #117, #242, #141 ) ;
#312 = PLANE ( 'NONE',  #247 ) ;
#313 = CYLINDRICAL_SURFACE ( 'NONE', #322, 1.959999999999999964 ) ;
#314 = ADVANCED_FACE ( 'NONE', ( #21, #218 ), #25, .F. ) ;
#315 = DIRECTION ( 'NONE',  ( 0.0000000000000000000, -1.000000000000000000, 0.0000000000000000000 ) ) ;
#316 = CARTESIAN_POINT ( 'NONE',  ( 1.312796983405018142E-13, -4.604842320337255071E-15, 37.59999999999999432 ) ) ;
#317 = AXIS2_PLACEMENT_3D ( 'NONE', #196, #323, #90 ) ;
#318 = DIRECTION ( 'NONE',  ( 3.491481338843133355E-15, -1.220387910567151280E-16, 1.000000000000000000 ) ) ;
#319 = ADVANCED_FACE ( 'NONE', ( #240, #193 ), #3, .T. ) ;
#320 = VERTEX_POINT ( 'NONE', #88 ) ;
#321 = DIRECTION ( 'NONE',  ( 3.491481338843133355E-15, -1.220387910567151280E-16, 1.000000000000000000 ) ) ;
#322 = AXIS2_PLACEMENT_3D ( 'NONE', #112, #157, #82 ) ;
#323 = DIRECTION ( 'NONE',  ( 3.491481338843133355E-15, -1.220387910567151280E-16, 1.000000000000000000 ) ) ;
ENDSEC;
END-ISO-10303-21;
