ISO-10303-21;
HEADER;
FILE_DESCRIPTION (( 'STEP AP203' ),
    '1' );
FILE_NAME ('381948.step',
    '2022-01-11T10:23:00',
    ( '' ),
    ( '' ),
    'SwSTEP 2.0',
    'SolidWorks 2019',
    '' );
FILE_SCHEMA (( 'CONFIG_CONTROL_DESIGN' ));
ENDSEC;

DATA;
#1 = FACE_OUTER_BOUND ( 'NONE', #70, .T. ) ;
#2 = EDGE_LOOP ( 'NONE', ( #265 ) ) ;
#3 = APPROVAL_PERSON_ORGANIZATION ( #119, #188, #252 ) ;
#4 = AXIS2_PLACEMENT_3D ( 'NONE', #83, #201, #35 ) ;
#5 = EDGE_LOOP ( 'NONE', ( #290 ) ) ;
#6 = FACE_OUTER_BOUND ( 'NONE', #191, .T. ) ;
#7 = CARTESIAN_POINT ( 'NONE',  ( 1.326762908760390423E-13, -4.653657836759941941E-15, 38.00000000000000000 ) ) ;
#8 = DATE_AND_TIME ( #210, #270 ) ;
#9 = CC_DESIGN_APPROVAL ( #49, ( #127 ) ) ;
#10 = DIRECTION ( 'NONE',  ( 3.491481338843133355E-15, -1.224646799147353207E-16, 1.000000000000000000 ) ) ;
#11 = FACE_OUTER_BOUND ( 'NONE', #189, .T. ) ;
#12 = COORDINATED_UNIVERSAL_TIME_OFFSET ( 1, 0, .AHEAD. ) ;
#13 = CARTESIAN_POINT ( 'NONE',  ( 1.312796983405018142E-13, -4.604386968255752427E-15, 37.59999999999999432 ) ) ;
#14 = DIRECTION ( 'NONE',  ( 4.275831445896958607E-31, 1.000000000000000000, 1.224646799147353207E-16 ) ) ;
#15 = LOCAL_TIME ( 11, 23, 0.0000000000000000000, #29 ) ;
#16 = EDGE_CURVE ( 'NONE', #134, #134, #79, .T. ) ;
#17 = CARTESIAN_POINT ( 'NONE',  ( 1.047444401652940953E-14, -0.8350000000000000755, 3.000000000000002665 ) ) ;
#18 = VERTEX_POINT ( 'NONE', #271 ) ;
#19 = AXIS2_PLACEMENT_3D ( 'NONE', #180, #177, #283 ) ;
#20 = AXIS2_PLACEMENT_3D ( 'NONE', #225, #74, #251 ) ;
#21 =( LENGTH_UNIT ( ) NAMED_UNIT ( * ) SI_UNIT ( .MILLI., .METRE. ) );
#22 = ORIENTED_EDGE ( 'NONE', *, *, #279, .T. ) ;
#23 = DIRECTION ( 'NONE',  ( 3.491481338843133355E-15, -1.231771712604713183E-16, 1.000000000000000000 ) ) ;
#24 = EDGE_LOOP ( 'NONE', ( #268 ) ) ;
#25 = DIRECTION ( 'NONE',  ( 0.0000000000000000000, 1.000000000000000000, 0.0000000000000000000 ) ) ;
#26 = EDGE_CURVE ( 'NONE', #108, #108, #300, .T. ) ;
#27 = ORIENTED_EDGE ( 'NONE', *, *, #279, .F. ) ;
#28 = CARTESIAN_POINT ( 'NONE',  ( 1.326762908760390423E-13, -4.653657836759941941E-15, 38.00000000000000000 ) ) ;
#29 = COORDINATED_UNIVERSAL_TIME_OFFSET ( 1, 0, .AHEAD. ) ;
#30 = PLANE ( 'NONE',  #56 ) ;
#31 = SHAPE_DEFINITION_REPRESENTATION ( #124, #266 ) ;
#32 = PLANE ( 'NONE',  #58 ) ;
#33 = AXIS2_PLACEMENT_3D ( 'NONE', #110, #89, #187 ) ;
#34 = FACE_OUTER_BOUND ( 'NONE', #315, .T. ) ;
#35 = DIRECTION ( 'NONE',  ( 0.0000000000000000000, -1.000000000000000000, 0.0000000000000000000 ) ) ;
#36 = APPLICATION_PROTOCOL_DEFINITION ( 'international standard', 'config_control_design', 1994, #157 ) ;
#37 = AXIS2_PLACEMENT_3D ( 'NONE', #156, #176, #227 ) ;
#38 = VERTEX_POINT ( 'NONE', #184 ) ;
#39 = EDGE_CURVE ( 'NONE', #267, #267, #81, .T. ) ;
#40 = AXIS2_PLACEMENT_3D ( 'NONE', #172, #50, #218 ) ;
#41 = CIRCLE ( 'NONE', #121, 1.999999999999993561 ) ;
#42 = APPROVAL_STATUS ( 'not_yet_approved' ) ;
#43 = ORIENTED_EDGE ( 'NONE', *, *, #135, .T. ) ;
#44 = CC_DESIGN_PERSON_AND_ORGANIZATION_ASSIGNMENT ( #254, #77, ( #306 ) ) ;
#45 = CARTESIAN_POINT ( 'NONE',  ( 1.326762908760390423E-13, -4.653657836759941941E-15, 38.00000000000000000 ) ) ;
#46 = EDGE_LOOP ( 'NONE', ( #304 ) ) ;
#47 = UNCERTAINTY_MEASURE_WITH_UNIT (LENGTH_MEASURE( 1.000000000000000082E-05 ), #21, 'distance_accuracy_value', 'NONE');
#48 = DIRECTION ( 'NONE',  ( 3.491481338843133355E-15, -1.231771712604713183E-16, 1.000000000000000000 ) ) ;
#49 = APPROVAL ( #42, 'UNSPECIFIED' ) ;
#50 = DIRECTION ( 'NONE',  ( 3.491481338843133355E-15, -1.231771712604713183E-16, 1.000000000000000000 ) ) ;
#51 = CARTESIAN_POINT ( 'NONE',  ( -1.282822666292886866E-31, 4.499536213101437899E-33, -3.674150143726493650E-17 ) ) ;
#52 = APPROVAL ( #150, 'UNSPECIFIED' ) ;
#53 = DIRECTION ( 'NONE',  ( -4.300707948274202904E-31, -1.000000000000000000, -1.231771712604713183E-16 ) ) ;
#54 = PERSON_AND_ORGANIZATION ( #126, #222 ) ;
#55 = DIRECTION ( 'NONE',  ( 3.491481338843133355E-15, -1.231771712604713183E-16, 1.000000000000000000 ) ) ;
#56 = AXIS2_PLACEMENT_3D ( 'NONE', #28, #57, #230 ) ;
#57 = DIRECTION ( 'NONE',  ( -3.491481338843133355E-15, 1.231771712604713183E-16, -1.000000000000000000 ) ) ;
#58 = AXIS2_PLACEMENT_3D ( 'NONE', #261, #10, #120 ) ;
#59 = DIRECTION ( 'NONE',  ( -3.491481338843133355E-15, 1.231771712604713183E-16, -1.000000000000000000 ) ) ;
#60 = CALENDAR_DATE ( 2022, 11, 1 ) ;
#61 = CARTESIAN_POINT ( 'NONE',  ( 3.840629472727447480E-15, 0.3499999999999998113, 1.100000000000000089 ) ) ;
#62 = ORIENTED_EDGE ( 'NONE', *, *, #213, .T. ) ;
#63 = ADVANCED_FACE ( 'NONE', ( #72, #305 ), #147, .F. ) ;
#64 =( NAMED_UNIT ( * ) PLANE_ANGLE_UNIT ( ) SI_UNIT ( $, .RADIAN. ) );
#65 = DIRECTION ( 'NONE',  ( 4.275831445896958607E-31, 1.000000000000000000, 1.224646799147353207E-16 ) ) ;
#66 = CARTESIAN_POINT ( 'NONE',  ( 0.0000000000000000000, 0.0000000000000000000, 0.0000000000000000000 ) ) ;
#67 = CYLINDRICAL_SURFACE ( 'NONE', #282, 1.959999999999999076 ) ;
#68 = DIRECTION ( 'NONE',  ( 3.491481338843133355E-15, -1.231771712604713183E-16, 1.000000000000000000 ) ) ;
#69 = CC_DESIGN_SECURITY_CLASSIFICATION ( #306, ( #211 ) ) ;
#70 = EDGE_LOOP ( 'NONE', ( #247 ) ) ;
#71 = EDGE_LOOP ( 'NONE', ( #107 ) ) ;
#72 = FACE_OUTER_BOUND ( 'NONE', #87, .T. ) ;
#73 = DATE_AND_TIME ( #123, #132 ) ;
#74 = DIRECTION ( 'NONE',  ( 3.491481338843133355E-15, -1.231771712604713183E-16, 1.000000000000000000 ) ) ;
#75 = ADVANCED_FACE ( 'NONE', ( #1, #243 ), #216, .T. ) ;
#76 = DIRECTION ( 'NONE',  ( -3.491481338843133355E-15, 1.224646799147353207E-16, -1.000000000000000000 ) ) ;
#77 = PERSON_AND_ORGANIZATION_ROLE ( 'classification_officer' ) ;
#78 = DIRECTION ( 'NONE',  ( -4.300707948274202904E-31, -1.000000000000000000, -1.231771712604713183E-16 ) ) ;
#79 = CIRCLE ( 'NONE', #178, 1.599999999999996314 ) ;
#80 = CARTESIAN_POINT ( 'NONE',  ( -6.414113331464434330E-32, 2.249768106550718950E-33, -1.837075071863246825E-17 ) ) ;
#81 = CIRCLE ( 'NONE', #296, 1.959999999999999076 ) ;
#82 = EDGE_CURVE ( 'NONE', #18, #18, #154, .T. ) ;
#83 = CARTESIAN_POINT ( 'NONE',  ( 6.110092342975488894E-15, -1.884853785678570715E-16, 1.750000000000001554 ) ) ;
#84 = PERSON_AND_ORGANIZATION ( #126, #222 ) ;
#85 = ORIENTED_EDGE ( 'NONE', *, *, #16, .F. ) ;
#86 = CARTESIAN_POINT ( 'NONE',  ( 2.137183397710479182E-32, 0.3499999999999998113, 6.121136532892404794E-18 ) ) ;
#87 = EDGE_LOOP ( 'NONE', ( #321 ) ) ;
#88 = AXIS2_PLACEMENT_3D ( 'NONE', #194, #68, #170 ) ;
#89 = DIRECTION ( 'NONE',  ( 3.491481338843133355E-15, -1.231771712604713183E-16, 1.000000000000000000 ) ) ;
#90 = EDGE_LOOP ( 'NONE', ( #276 ) ) ;
#91 = ORIENTED_EDGE ( 'NONE', *, *, #135, .F. ) ;
#92 = AXIS2_PLACEMENT_3D ( 'NONE', #66, #138, #237 ) ;
#93 = AXIS2_PLACEMENT_3D ( 'NONE', #13, #59, #311 ) ;
#94 = CARTESIAN_POINT ( 'NONE',  ( 6.110092342975484161E-15, -4.336808689942017736E-16, 1.750000000000000222 ) ) ;
#95 = EDGE_LOOP ( 'NONE', ( #62 ) ) ;
#96 = DIRECTION ( 'NONE',  ( 3.491481338843133355E-15, -1.231771712604713183E-16, 1.000000000000000000 ) ) ;
#97 = CC_DESIGN_PERSON_AND_ORGANIZATION_ASSIGNMENT ( #233, #105, ( #127 ) ) ;
#98 = PLANE ( 'NONE',  #255 ) ;
#99 = FACE_BOUND ( 'NONE', #209, .T. ) ;
#100 = DATE_TIME_ROLE ( 'creation_date' ) ;
#101 = ADVANCED_FACE ( 'NONE', ( #6, #214 ), #322, .T. ) ;
#102 = DIRECTION ( 'NONE',  ( 3.491481338843133355E-15, -1.231771712604713183E-16, 1.000000000000000000 ) ) ;
#103 = APPROVAL_PERSON_ORGANIZATION ( #152, #52, #260 ) ;
#104 = CARTESIAN_POINT ( 'NONE',  ( 3.840629472727447480E-15, 0.3499999999999998113, 1.100000000000000089 ) ) ;
#105 = PERSON_AND_ORGANIZATION_ROLE ( 'creator' ) ;
#106 = CARTESIAN_POINT ( 'NONE',  ( 6.110092342975488894E-15, -0.3499999999999999778, 1.750000000000001554 ) ) ;
#107 = ORIENTED_EDGE ( 'NONE', *, *, #163, .F. ) ;
#108 = VERTEX_POINT ( 'NONE', #61 ) ;
#109 = CARTESIAN_POINT ( 'NONE',  ( 3.281992458512545354E-14, -1.960000000000000409, 9.399999999999998579 ) ) ;
#110 = CARTESIAN_POINT ( 'NONE',  ( 1.047444401652940953E-14, -3.424568426434458989E-16, 3.000000000000002665 ) ) ;
#111 = DIRECTION ( 'NONE',  ( 3.491481338843133355E-15, -1.231771712604713183E-16, 1.000000000000000000 ) ) ;
#112 = ADVANCED_FACE ( 'NONE', ( #298, #299 ), #67, .T. ) ;
#113 = DIRECTION ( 'NONE',  ( -3.491481338843133355E-15, 1.224646799147353207E-16, -1.000000000000000000 ) ) ;
#114 = DIRECTION ( 'NONE',  ( 0.0000000000000000000, -1.000000000000000000, 0.0000000000000000000 ) ) ;
#115 = DIRECTION ( 'NONE',  ( -4.361754602074799670E-31, -1.000000000000000000, -1.231771712604713183E-16 ) ) ;
#116 = PERSON_AND_ORGANIZATION ( #126, #222 ) ;
#117 = ADVANCED_FACE ( 'NONE', ( #275, #307 ), #192, .T. ) ;
#118 = FACE_OUTER_BOUND ( 'NONE', #212, .T. ) ;
#119 = PERSON_AND_ORGANIZATION ( #126, #222 ) ;
#120 = DIRECTION ( 'NONE',  ( -4.275831445896958607E-31, -1.000000000000000000, -1.224646799147353207E-16 ) ) ;
#121 = AXIS2_PLACEMENT_3D ( 'NONE', #256, #125, #129 ) ;
#122 = CC_DESIGN_APPROVAL ( #52, ( #306 ) ) ;
#123 = CALENDAR_DATE ( 2022, 11, 1 ) ;
#124 = PRODUCT_DEFINITION_SHAPE ( 'NONE', 'NONE',  #127 ) ;
#125 = DIRECTION ( 'NONE',  ( 3.491481338843133355E-15, -1.231771712604713183E-16, 1.000000000000000000 ) ) ;
#126 = PERSON ( 'UNSPECIFIED', 'UNSPECIFIED', 'UNSPECIFIED', ('UNSPECIFIED'), ('UNSPECIFIED'), ('UNSPECIFIED') ) ;
#127 = PRODUCT_DEFINITION ( 'UNKNOWN', '', #211, #246 ) ;
#128 = SECURITY_CLASSIFICATION_LEVEL ( 'unclassified' ) ;
#129 = DIRECTION ( 'NONE',  ( 0.0000000000000000000, -1.000000000000000000, 0.0000000000000000000 ) ) ;
#130 = APPROVAL_DATE_TIME ( #73, #188 ) ;
#131 = PLANE ( 'NONE',  #248 ) ;
#132 = LOCAL_TIME ( 11, 23, 0.0000000000000000000, #250 ) ;
#133 = APPROVAL_DATE_TIME ( #263, #49 ) ;
#134 = VERTEX_POINT ( 'NONE', #162 ) ;
#135 = EDGE_CURVE ( 'NONE', #235, #235, #302, .T. ) ;
#136 = CARTESIAN_POINT ( 'NONE',  ( 2.789689482689513687E-14, -1.960000000000000409, 7.989988236952308753 ) ) ;
#137 = LOCAL_TIME ( 11, 23, 0.0000000000000000000, #241 ) ;
#138 = DIRECTION ( 'NONE',  ( 0.0000000000000000000, 0.0000000000000000000, 1.000000000000000000 ) ) ;
#139 = ADVANCED_FACE ( 'NONE', ( #314 ), #98, .F. ) ;
#140 = VERTEX_POINT ( 'NONE', #106 ) ;
#141 = EDGE_LOOP ( 'NONE', ( #161 ) ) ;
#142 = EDGE_LOOP ( 'NONE', ( #272 ) ) ;
#143 = DIRECTION ( 'NONE',  ( 3.491481338843133355E-15, -1.231771712604713183E-16, 1.000000000000000000 ) ) ;
#144 = EDGE_LOOP ( 'NONE', ( #22 ) ) ;
#145 = CARTESIAN_POINT ( 'NONE',  ( 3.840629472727447480E-15, -1.347111479062088503E-16, 1.100000000000000089 ) ) ;
#146 = CARTESIAN_POINT ( 'NONE',  ( 3.281992458512545354E-14, -1.130790738710461744E-15, 9.399999999999998579 ) ) ;
#147 = TOROIDAL_SURFACE ( 'NONE', #231, 2.350000000000000089, 2.000000000000000000 ) ;
#148 = ADVANCED_FACE ( 'NONE', ( #11 ), #32, .T. ) ;
#149 = FACE_OUTER_BOUND ( 'NONE', #71, .T. ) ;
#150 = APPROVAL_STATUS ( 'not_yet_approved' ) ;
#151 = FACE_OUTER_BOUND ( 'NONE', #46, .T. ) ;
#152 = PERSON_AND_ORGANIZATION ( #126, #222 ) ;
#153 = DIRECTION ( 'NONE',  ( 0.0000000000000000000, -1.000000000000000000, 0.0000000000000000000 ) ) ;
#154 = CIRCLE ( 'NONE', #40, 1.999999999999997113 ) ;
#155 = AXIS2_PLACEMENT_3D ( 'NONE', #309, #158, #253 ) ;
#156 = CARTESIAN_POINT ( 'NONE',  ( 3.840629472727435647E-15, -1.084202172485496792E-16, 1.099999999999996758 ) ) ;
#157 = APPLICATION_CONTEXT ( 'configuration controlled 3d designs of mechanical parts and assemblies' ) ;
#158 = DIRECTION ( 'NONE',  ( 3.491481338843133355E-15, -1.231771712604713183E-16, 1.000000000000000000 ) ) ;
#159 = EDGE_CURVE ( 'NONE', #264, #264, #317, .T. ) ;
#160 = VERTEX_POINT ( 'NONE', #206 ) ;
#161 = ORIENTED_EDGE ( 'NONE', *, *, #181, .F. ) ;
#162 = CARTESIAN_POINT ( 'NONE',  ( 1.326762908760390423E-13, -1.600000000000000977, 38.00000000000000000 ) ) ;
#163 = EDGE_CURVE ( 'NONE', #140, #140, #286, .T. ) ;
#164 = AXIS2_PLACEMENT_3D ( 'NONE', #51, #76, #14 ) ;
#165 = PERSON_AND_ORGANIZATION_ROLE ( 'design_owner' ) ;
#166 = CARTESIAN_POINT ( 'NONE',  ( 1.326762908760390423E-13, -4.653657836759941941E-15, 38.00000000000000000 ) ) ;
#167 = AXIS2_PLACEMENT_3D ( 'NONE', #199, #55, #78 ) ;
#168 = CIRCLE ( 'NONE', #37, 0.3499999999999999223 ) ;
#169 = DIRECTION ( 'NONE',  ( 0.0000000000000000000, -1.000000000000000000, 0.0000000000000000000 ) ) ;
#170 = DIRECTION ( 'NONE',  ( 0.0000000000000000000, -1.000000000000000000, 0.0000000000000000000 ) ) ;
#171 = CC_DESIGN_PERSON_AND_ORGANIZATION_ASSIGNMENT ( #54, #220, ( #211 ) ) ;
#172 = CARTESIAN_POINT ( 'NONE',  ( 1.312796983405018142E-13, -4.604386968255752427E-15, 37.59999999999999432 ) ) ;
#173 = DATE_AND_TIME ( #226, #186 ) ;
#174 = PLANE ( 'NONE',  #167 ) ;
#175 = MANIFOLD_SOLID_BREP ( 'Corps-Déplacer/Copier4[1]', #238 ) ;
#176 = DIRECTION ( 'NONE',  ( 3.491481338843133355E-15, -1.231771712604713183E-16, 1.000000000000000000 ) ) ;
#177 = DIRECTION ( 'NONE',  ( 3.491481338843133355E-15, -1.231771712604713183E-16, 1.000000000000000000 ) ) ;
#178 = AXIS2_PLACEMENT_3D ( 'NONE', #45, #23, #303 ) ;
#179 = DIRECTION ( 'NONE',  ( 3.491481338843133355E-15, -1.224646799147353207E-16, 1.000000000000000000 ) ) ;
#180 = CARTESIAN_POINT ( 'NONE',  ( 1.047444401652940953E-14, -3.424568426434458989E-16, 3.000000000000002665 ) ) ;
#181 = EDGE_CURVE ( 'NONE', #289, #289, #41, .T. ) ;
#182 = CYLINDRICAL_SURFACE ( 'NONE', #284, 0.3499999999999998668 ) ;
#183 = EDGE_LOOP ( 'NONE', ( #85 ) ) ;
#184 = CARTESIAN_POINT ( 'NONE',  ( 1.047444401652940953E-14, -0.7887505004004010667, 3.000000000000002665 ) ) ;
#185 = CARTESIAN_POINT ( 'NONE',  ( 0.0000000000000000000, 0.0000000000000000000, 0.0000000000000000000 ) ) ;
#186 = LOCAL_TIME ( 11, 23, 0.0000000000000000000, #12 ) ;
#187 = DIRECTION ( 'NONE',  ( 0.0000000000000000000, -1.000000000000000000, 0.0000000000000000000 ) ) ;
#188 = APPROVAL ( #257, 'UNSPECIFIED' ) ;
#189 = EDGE_LOOP ( 'NONE', ( #215 ) ) ;
#190 = CIRCLE ( 'NONE', #164, 0.3499999999999998113 ) ;
#191 = EDGE_LOOP ( 'NONE', ( #91 ) ) ;
#192 = CONICAL_SURFACE ( 'NONE', #93, 1.999999999999997113, 0.7853981633974433940 ) ;
#193 = ADVANCED_FACE ( 'NONE', ( #198, #99 ), #174, .F. ) ;
#194 = CARTESIAN_POINT ( 'NONE',  ( 1.326762908760390423E-13, -4.653657836759941941E-15, 38.00000000000000000 ) ) ;
#195 = EDGE_LOOP ( 'NONE', ( #323 ) ) ;
#196 = DIRECTION ( 'NONE',  ( 3.491481338843133355E-15, -1.231771712604713183E-16, 1.000000000000000000 ) ) ;
#197 =( GEOMETRIC_REPRESENTATION_CONTEXT ( 3 ) GLOBAL_UNCERTAINTY_ASSIGNED_CONTEXT ( ( #47 ) ) GLOBAL_UNIT_ASSIGNED_CONTEXT ( ( #21, #64, #208 ) ) REPRESENTATION_CONTEXT ( 'NONE', 'WORKASPACE' ) );
#198 = FACE_OUTER_BOUND ( 'NONE', #141, .T. ) ;
#199 = CARTESIAN_POINT ( 'NONE',  ( 3.281992458512545354E-14, 1.999999999999992228, 9.400000000000000355 ) ) ;
#200 = APPROVAL_DATE_TIME ( #173, #52 ) ;
#201 = DIRECTION ( 'NONE',  ( 3.491481338843133355E-15, -1.231771712604713183E-16, 1.000000000000000000 ) ) ;
#202 = APPROVAL_PERSON_ORGANIZATION ( #84, #49, #288 ) ;
#203 = DATE_AND_TIME ( #228, #15 ) ;
#204 = PLANE ( 'NONE',  #155 ) ;
#205 = CC_DESIGN_PERSON_AND_ORGANIZATION_ASSIGNMENT ( #116, #223, ( #211 ) ) ;
#206 = CARTESIAN_POINT ( 'NONE',  ( 3.840629472727435647E-15, -0.3500000000000000333, 1.099999999999996758 ) ) ;
#207 = CARTESIAN_POINT ( 'NONE',  ( 3.281992458512545354E-14, -1.999999999999994893, 9.399999999999998579 ) ) ;
#208 =( NAMED_UNIT ( * ) SI_UNIT ( $, .STERADIAN. ) SOLID_ANGLE_UNIT ( ) );
#209 = EDGE_LOOP ( 'NONE', ( #249 ) ) ;
#210 = CALENDAR_DATE ( 2022, 11, 1 ) ;
#211 = PRODUCT_DEFINITION_FORMATION_WITH_SPECIFIED_SOURCE ( 'ANY', '', #224, .NOT_KNOWN. ) ;
#212 = EDGE_LOOP ( 'NONE', ( #294 ) ) ;
#213 = EDGE_CURVE ( 'NONE', #38, #38, #301, .T. ) ;
#214 = FACE_BOUND ( 'NONE', #195, .T. ) ;
#215 = ORIENTED_EDGE ( 'NONE', *, *, #26, .F. ) ;
#216 = CYLINDRICAL_SURFACE ( 'NONE', #88, 1.999999999999995337 ) ;
#217 = CLOSED_SHELL ( 'NONE', ( #259, #319, #148 ) ) ;
#218 = DIRECTION ( 'NONE',  ( 0.0000000000000000000, -1.000000000000000000, 0.0000000000000000000 ) ) ;
#219 = CYLINDRICAL_SURFACE ( 'NONE', #313, 0.3499999999999998113 ) ;
#220 = PERSON_AND_ORGANIZATION_ROLE ( 'design_supplier' ) ;
#221 = CARTESIAN_POINT ( 'NONE',  ( 1.047444401652940953E-14, -3.424568426434458989E-16, 3.000000000000002665 ) ) ;
#222 = ORGANIZATION ( 'UNSPECIFIED', 'UNSPECIFIED', '' ) ;
#223 = PERSON_AND_ORGANIZATION_ROLE ( 'creator' ) ;
#224 = PRODUCT ( '381948', '381948', '', ( #318 ) ) ;
#225 = CARTESIAN_POINT ( 'NONE',  ( 2.789689482689513687E-14, -9.571094782942580760E-16, 7.989988236952308753 ) ) ;
#226 = CALENDAR_DATE ( 2022, 11, 1 ) ;
#227 = DIRECTION ( 'NONE',  ( 0.0000000000000000000, -1.000000000000000000, 0.0000000000000000000 ) ) ;
#228 = CALENDAR_DATE ( 2022, 11, 1 ) ;
#229 = CC_DESIGN_PERSON_AND_ORGANIZATION_ASSIGNMENT ( #293, #165, ( #224 ) ) ;
#230 = DIRECTION ( 'NONE',  ( 4.300707948274202904E-31, 1.000000000000000000, 1.231771712604713183E-16 ) ) ;
#231 = AXIS2_PLACEMENT_3D ( 'NONE', #94, #48, #115 ) ;
#232 = CC_DESIGN_APPROVAL ( #188, ( #211 ) ) ;
#233 = PERSON_AND_ORGANIZATION ( #126, #222 ) ;
#234 = APPLICATION_CONTEXT ( 'configuration controlled 3d designs of mechanical parts and assemblies' ) ;
#235 = VERTEX_POINT ( 'NONE', #136 ) ;
#236 = CC_DESIGN_DATE_AND_TIME_ASSIGNMENT ( #203, #308, ( #306 ) ) ;
#237 = DIRECTION ( 'NONE',  ( 1.000000000000000000, 0.0000000000000000000, 0.0000000000000000000 ) ) ;
#238 = CLOSED_SHELL ( 'NONE', ( #310, #63, #242, #101, #112, #193, #75, #117, #245, #139 ) ) ;
#239 = AXIS2_PLACEMENT_3D ( 'NONE', #221, #196, #153 ) ;
#240 = APPLICATION_PROTOCOL_DEFINITION ( 'international standard', 'config_control_design', 1994, #234 ) ;
#241 = COORDINATED_UNIVERSAL_TIME_OFFSET ( 1, 0, .AHEAD. ) ;
#242 = ADVANCED_FACE ( 'NONE', ( #118, #258 ), #204, .F. ) ;
#243 = FACE_OUTER_BOUND ( 'NONE', #5, .T. ) ;
#244 = ORIENTED_EDGE ( 'NONE', *, *, #16, .T. ) ;
#245 = ADVANCED_FACE ( 'NONE', ( #34 ), #30, .F. ) ;
#246 = DESIGN_CONTEXT ( 'detailed design', #234, 'design' ) ;
#247 = ORIENTED_EDGE ( 'NONE', *, *, #82, .F. ) ;
#248 = AXIS2_PLACEMENT_3D ( 'NONE', #80, #179, #287 ) ;
#249 = ORIENTED_EDGE ( 'NONE', *, *, #39, .T. ) ;
#250 = COORDINATED_UNIVERSAL_TIME_OFFSET ( 1, 0, .AHEAD. ) ;
#251 = DIRECTION ( 'NONE',  ( 0.0000000000000000000, -1.000000000000000000, 0.0000000000000000000 ) ) ;
#252 = APPROVAL_ROLE ( '' ) ;
#253 = DIRECTION ( 'NONE',  ( -4.300707948274202904E-31, -1.000000000000000000, -1.231771712604713183E-16 ) ) ;
#254 = PERSON_AND_ORGANIZATION ( #126, #222 ) ;
#255 = AXIS2_PLACEMENT_3D ( 'NONE', #104, #102, #53 ) ;
#256 = CARTESIAN_POINT ( 'NONE',  ( 3.281992458512545354E-14, -1.130790738710461744E-15, 9.399999999999998579 ) ) ;
#257 = APPROVAL_STATUS ( 'not_yet_approved' ) ;
#258 = FACE_BOUND ( 'NONE', #95, .T. ) ;
#259 = ADVANCED_FACE ( 'NONE', ( #312 ), #131, .F. ) ;
#260 = APPROVAL_ROLE ( '' ) ;
#261 = CARTESIAN_POINT ( 'NONE',  ( 3.840629472727447480E-15, 2.624579619658249103E-33, 1.100000000000000089 ) ) ;
#262 = COORDINATED_UNIVERSAL_TIME_OFFSET ( 1, 0, .AHEAD. ) ;
#263 = DATE_AND_TIME ( #60, #137 ) ;
#264 = VERTEX_POINT ( 'NONE', #17 ) ;
#265 = ORIENTED_EDGE ( 'NONE', *, *, #82, .T. ) ;
#266 = ADVANCED_BREP_SHAPE_REPRESENTATION ( '381948', ( #175, #292, #92 ), #197 ) ;
#267 = VERTEX_POINT ( 'NONE', #109 ) ;
#268 = ORIENTED_EDGE ( 'NONE', *, *, #295, .T. ) ;
#269 = AXIS2_PLACEMENT_3D ( 'NONE', #145, #113, #25 ) ;
#270 = LOCAL_TIME ( 11, 23, 0.0000000000000000000, #262 ) ;
#271 = CARTESIAN_POINT ( 'NONE',  ( 1.312796983405018142E-13, -2.000000000000001776, 37.59999999999999432 ) ) ;
#272 = ORIENTED_EDGE ( 'NONE', *, *, #39, .F. ) ;
#273 = EDGE_LOOP ( 'NONE', ( #43 ) ) ;
#274 = CC_DESIGN_DATE_AND_TIME_ASSIGNMENT ( #8, #100, ( #127 ) ) ;
#275 = FACE_BOUND ( 'NONE', #183, .T. ) ;
#276 = ORIENTED_EDGE ( 'NONE', *, *, #26, .T. ) ;
#277 = ORIENTED_EDGE ( 'NONE', *, *, #163, .T. ) ;
#278 = EDGE_LOOP ( 'NONE', ( #27 ) ) ;
#279 = EDGE_CURVE ( 'NONE', #160, #160, #168, .T. ) ;
#280 = DIRECTION ( 'NONE',  ( 0.0000000000000000000, -1.000000000000000000, 0.0000000000000000000 ) ) ;
#281 = FACE_OUTER_BOUND ( 'NONE', #144, .T. ) ;
#282 = AXIS2_PLACEMENT_3D ( 'NONE', #166, #143, #169 ) ;
#283 = DIRECTION ( 'NONE',  ( 0.0000000000000000000, -1.000000000000000000, 0.0000000000000000000 ) ) ;
#284 = AXIS2_PLACEMENT_3D ( 'NONE', #185, #320, #65 ) ;
#285 = PRODUCT_RELATED_PRODUCT_CATEGORY ( 'detail', '', ( #224 ) ) ;
#286 = CIRCLE ( 'NONE', #4, 0.3499999999999998113 ) ;
#287 = DIRECTION ( 'NONE',  ( -4.275831445896958607E-31, -1.000000000000000000, -1.224646799147353207E-16 ) ) ;
#288 = APPROVAL_ROLE ( '' ) ;
#289 = VERTEX_POINT ( 'NONE', #207 ) ;
#290 = ORIENTED_EDGE ( 'NONE', *, *, #181, .T. ) ;
#291 = FACE_OUTER_BOUND ( 'NONE', #90, .T. ) ;
#292 = MANIFOLD_SOLID_BREP ( 'Corps-Déplacer/Copier4[2]', #217 ) ;
#293 = PERSON_AND_ORGANIZATION ( #126, #222 ) ;
#294 = ORIENTED_EDGE ( 'NONE', *, *, #159, .F. ) ;
#295 = EDGE_CURVE ( 'NONE', #316, #316, #190, .T. ) ;
#296 = AXIS2_PLACEMENT_3D ( 'NONE', #146, #111, #114 ) ;
#297 = EDGE_LOOP ( 'NONE', ( #277 ) ) ;
#298 = FACE_OUTER_BOUND ( 'NONE', #142, .T. ) ;
#299 = FACE_OUTER_BOUND ( 'NONE', #273, .T. ) ;
#300 = CIRCLE ( 'NONE', #269, 0.3499999999999999223 ) ;
#301 = CIRCLE ( 'NONE', #19, 0.7887505004004007336 ) ;
#302 = CIRCLE ( 'NONE', #20, 1.959999999999999520 ) ;
#303 = DIRECTION ( 'NONE',  ( 0.0000000000000000000, -1.000000000000000000, 0.0000000000000000000 ) ) ;
#304 = ORIENTED_EDGE ( 'NONE', *, *, #295, .F. ) ;
#305 = FACE_OUTER_BOUND ( 'NONE', #297, .T. ) ;
#306 = SECURITY_CLASSIFICATION ( '', '', #128 ) ;
#307 = FACE_OUTER_BOUND ( 'NONE', #2, .T. ) ;
#308 = DATE_TIME_ROLE ( 'classification_date' ) ;
#309 = CARTESIAN_POINT ( 'NONE',  ( 1.047444401652940007E-14, 0.7887505004004004006, 3.000000000000000000 ) ) ;
#310 = ADVANCED_FACE ( 'NONE', ( #149, #281 ), #219, .T. ) ;
#311 = DIRECTION ( 'NONE',  ( 0.0000000000000000000, 1.000000000000000000, 0.0000000000000000000 ) ) ;
#312 = FACE_OUTER_BOUND ( 'NONE', #24, .T. ) ;
#313 = AXIS2_PLACEMENT_3D ( 'NONE', #7, #96, #280 ) ;
#314 = FACE_OUTER_BOUND ( 'NONE', #278, .T. ) ;
#315 = EDGE_LOOP ( 'NONE', ( #244 ) ) ;
#316 = VERTEX_POINT ( 'NONE', #86 ) ;
#317 = CIRCLE ( 'NONE', #239, 0.8349999999999997424 ) ;
#318 = MECHANICAL_CONTEXT ( 'NONE', #157, 'mechanical' ) ;
#319 = ADVANCED_FACE ( 'NONE', ( #151, #291 ), #182, .T. ) ;
#320 = DIRECTION ( 'NONE',  ( -3.491481338843133355E-15, 1.224646799147353207E-16, -1.000000000000000000 ) ) ;
#321 = ORIENTED_EDGE ( 'NONE', *, *, #213, .F. ) ;
#322 = CONICAL_SURFACE ( 'NONE', #33, 0.8349999999999997424, 0.2217440814658728776 ) ;
#323 = ORIENTED_EDGE ( 'NONE', *, *, #159, .T. ) ;
ENDSEC;
END-ISO-10303-21;
