ISO-10303-21;
HEADER;
FILE_DESCRIPTION (( 'STEP AP203' ),
    '1' );
FILE_NAME ('381947.step',
    '2022-01-11T10:22:59',
    ( '' ),
    ( '' ),
    'SwSTEP 2.0',
    'SolidWorks 2019',
    '' );
FILE_SCHEMA (( 'CONFIG_CONTROL_DESIGN' ));
ENDSEC;

DATA;
#1 = EDGE_LOOP ( 'NONE', ( #120 ) ) ;
#2 = CARTESIAN_POINT ( 'NONE',  ( 3.142333204958820020E-15, 0.2999999999999998224, 0.9000000000000000222 ) ) ;
#3 = EDGE_LOOP ( 'NONE', ( #220 ) ) ;
#4 = CIRCLE ( 'NONE', #150, 0.2999999999999999334 ) ;
#5 = EDGE_LOOP ( 'NONE', ( #159 ) ) ;
#6 = MECHANICAL_CONTEXT ( 'NONE', #274, 'mechanical' ) ;
#7 = EDGE_LOOP ( 'NONE', ( #86 ) ) ;
#8 = CARTESIAN_POINT ( 'NONE',  ( 1.012529588264508515E-14, 1.050157016132149826E-32, 2.899999999999999911 ) ) ;
#9 = AXIS2_PLACEMENT_3D ( 'NONE', #224, #18, #228 ) ;
#10 = EDGE_LOOP ( 'NONE', ( #33 ) ) ;
#11 = COORDINATED_UNIVERSAL_TIME_OFFSET ( 1, 0, .AHEAD. ) ;
#12 = PLANE ( 'NONE',  #202 ) ;
#13 = PERSON_AND_ORGANIZATION_ROLE ( 'creator' ) ;
#14 = DIRECTION ( 'NONE',  ( -3.491481338843133355E-15, 1.224646799147353207E-16, -1.000000000000000000 ) ) ;
#15 = CLOSED_SHELL ( 'NONE', ( #262, #307, #246 ) ) ;
#16 = CARTESIAN_POINT ( 'NONE',  ( 1.012529588264508515E-14, -3.551475717527323832E-16, 2.899999999999999911 ) ) ;
#17 = CC_DESIGN_PERSON_AND_ORGANIZATION_ASSIGNMENT ( #156, #32, ( #256 ) ) ;
#18 = DIRECTION ( 'NONE',  ( -3.491481338843133355E-15, 1.224646799147353207E-16, -1.000000000000000000 ) ) ;
#19 = DIRECTION ( 'NONE',  ( -4.275831445896958607E-31, -1.000000000000000000, -1.224646799147353207E-16 ) ) ;
#20 = CYLINDRICAL_SURFACE ( 'NONE', #305, 1.999999999999995337 ) ;
#21 = AXIS2_PLACEMENT_3D ( 'NONE', #147, #283, #200 ) ;
#22 = FACE_OUTER_BOUND ( 'NONE', #142, .T. ) ;
#23 = CARTESIAN_POINT ( 'NONE',  ( 3.142333204958820020E-15, 2.249639673992784359E-33, 0.9000000000000000222 ) ) ;
#24 = CARTESIAN_POINT ( 'NONE',  ( 1.012529588264508515E-14, 0.5654336271349705845, 2.899999999999999911 ) ) ;
#25 = EDGE_CURVE ( 'NONE', #233, #233, #316, .T. ) ;
#26 = AXIS2_PLACEMENT_3D ( 'NONE', #16, #222, #146 ) ;
#27 = PERSON_AND_ORGANIZATION_ROLE ( 'design_owner' ) ;
#28 = DESIGN_CONTEXT ( 'detailed design', #117, 'design' ) ;
#29 = ORIENTED_EDGE ( 'NONE', *, *, #184, .T. ) ;
#30 = CARTESIAN_POINT ( 'NONE',  ( 5.237222008264700033E-15, 0.2999999999999998224, 1.500000000000000000 ) ) ;
#31 = EDGE_CURVE ( 'NONE', #110, #110, #279, .T. ) ;
#32 = PERSON_AND_ORGANIZATION_ROLE ( 'creator' ) ;
#33 = ORIENTED_EDGE ( 'NONE', *, *, #25, .F. ) ;
#34 = AXIS2_PLACEMENT_3D ( 'NONE', #214, #93, #91 ) ;
#35 = EDGE_LOOP ( 'NONE', ( #29 ) ) ;
#36 = ADVANCED_BREP_SHAPE_REPRESENTATION ( '381947', ( #302, #181, #225 ), #53 ) ;
#37 = DIRECTION ( 'NONE',  ( 4.275831445896958607E-31, 1.000000000000000000, 1.224646799147353207E-16 ) ) ;
#38 = ADVANCED_FACE ( 'NONE', ( #97, #143 ), #166, .F. ) ;
#39 = AXIS2_PLACEMENT_3D ( 'NONE', #23, #229, #309 ) ;
#40 = APPROVAL_ROLE ( '' ) ;
#41 = DIRECTION ( 'NONE',  ( -3.491481338843133355E-15, 1.224646799147353207E-16, -1.000000000000000000 ) ) ;
#42 = CARTESIAN_POINT ( 'NONE',  ( -1.069031093998038848E-31, 3.749656321770509779E-33, -3.061826744152817170E-17 ) ) ;
#43 = EDGE_CURVE ( 'NONE', #112, #112, #123, .T. ) ;
#44 = CARTESIAN_POINT ( 'NONE',  ( 1.012529588264508515E-14, -3.551475717527323832E-16, 2.899999999999999911 ) ) ;
#45 = AXIS2_PLACEMENT_3D ( 'NONE', #171, #170, #203 ) ;
#46 = AXIS2_PLACEMENT_3D ( 'NONE', #272, #66, #67 ) ;
#47 = DIRECTION ( 'NONE',  ( 3.491481338843133355E-15, -1.224646799147353207E-16, 1.000000000000000000 ) ) ;
#48 = DIRECTION ( 'NONE',  ( 4.275831445896958607E-31, 1.000000000000000000, 1.224646799147353207E-16 ) ) ;
#49 = CARTESIAN_POINT ( 'NONE',  ( 1.312796983405018142E-13, -4.604671964794046935E-15, 37.59999999999999432 ) ) ;
#50 = PRODUCT_RELATED_PRODUCT_CATEGORY ( 'detail', '', ( #157 ) ) ;
#51 = FACE_OUTER_BOUND ( 'NONE', #211, .T. ) ;
#52 = CLOSED_SHELL ( 'NONE', ( #231, #160, #77, #104, #55, #115, #126, #38, #131, #191, #227 ) ) ;
#53 =( GEOMETRIC_REPRESENTATION_CONTEXT ( 3 ) GLOBAL_UNCERTAINTY_ASSIGNED_CONTEXT ( ( #81 ) ) GLOBAL_UNIT_ASSIGNED_CONTEXT ( ( #258, #113, #87 ) ) REPRESENTATION_CONTEXT ( 'NONE', 'WORKASPACE' ) );
#54 = DIRECTION ( 'NONE',  ( 4.275831445896958607E-31, 1.000000000000000000, 1.224646799147353207E-16 ) ) ;
#55 = ADVANCED_FACE ( 'NONE', ( #72, #169 ), #12, .F. ) ;
#56 = DIRECTION ( 'NONE',  ( -3.491481338843133355E-15, 1.224646799147353207E-16, -1.000000000000000000 ) ) ;
#57 = VERTEX_POINT ( 'NONE', #210 ) ;
#58 = ORIENTED_EDGE ( 'NONE', *, *, #25, .T. ) ;
#59 = CONICAL_SURFACE ( 'NONE', #341, 1.959999999999999520, 0.2217440814658727943 ) ;
#60 = VERTEX_POINT ( 'NONE', #212 ) ;
#61 = APPROVAL_ROLE ( '' ) ;
#62 = ORIENTED_EDGE ( 'NONE', *, *, #89, .F. ) ;
#63 = DATE_AND_TIME ( #242, #315 ) ;
#64 = ORIENTED_EDGE ( 'NONE', *, *, #167, .F. ) ;
#65 = DATE_TIME_ROLE ( 'creation_date' ) ;
#66 = DIRECTION ( 'NONE',  ( -3.491481338843133355E-15, 1.224646799147353207E-16, -1.000000000000000000 ) ) ;
#67 = DIRECTION ( 'NONE',  ( 4.337587944509189251E-31, 1.000000000000000000, 1.224646799147353207E-16 ) ) ;
#68 = CALENDAR_DATE ( 2022, 11, 1 ) ;
#69 = FACE_OUTER_BOUND ( 'NONE', #161, .T. ) ;
#70 = APPROVAL ( #290, 'UNSPECIFIED' ) ;
#71 = SHAPE_DEFINITION_REPRESENTATION ( #88, #36 ) ;
#72 = FACE_BOUND ( 'NONE', #187, .T. ) ;
#73 = EDGE_LOOP ( 'NONE', ( #235 ) ) ;
#74 = AXIS2_PLACEMENT_3D ( 'NONE', #173, #285, #48 ) ;
#75 = DIRECTION ( 'NONE',  ( 0.0000000000000000000, 1.000000000000000000, 0.0000000000000000000 ) ) ;
#76 = DIRECTION ( 'NONE',  ( -3.491481338843133355E-15, 1.224646799147353207E-16, -1.000000000000000000 ) ) ;
#77 = ADVANCED_FACE ( 'NONE', ( #296, #69 ), #259, .F. ) ;
#78 = PLANE ( 'NONE',  #39 ) ;
#79 = FACE_OUTER_BOUND ( 'NONE', #124, .T. ) ;
#80 = CALENDAR_DATE ( 2022, 11, 1 ) ;
#81 = UNCERTAINTY_MEASURE_WITH_UNIT (LENGTH_MEASURE( 1.000000000000000082E-05 ), #258, 'distance_accuracy_value', 'NONE');
#82 = APPLICATION_PROTOCOL_DEFINITION ( 'international standard', 'config_control_design', 1994, #117 ) ;
#83 = CC_DESIGN_APPROVAL ( #70, ( #256 ) ) ;
#84 = AXIS2_PLACEMENT_3D ( 'NONE', #127, #172, #148 ) ;
#85 = CARTESIAN_POINT ( 'NONE',  ( 0.0000000000000000000, 0.0000000000000000000, 0.0000000000000000000 ) ) ;
#86 = ORIENTED_EDGE ( 'NONE', *, *, #273, .T. ) ;
#87 =( NAMED_UNIT ( * ) SI_UNIT ( $, .STERADIAN. ) SOLID_ANGLE_UNIT ( ) );
#88 = PRODUCT_DEFINITION_SHAPE ( 'NONE', 'NONE',  #256 ) ;
#89 = EDGE_CURVE ( 'NONE', #318, #318, #180, .T. ) ;
#90 = FACE_OUTER_BOUND ( 'NONE', #218, .T. ) ;
#91 = DIRECTION ( 'NONE',  ( -4.275831445896958607E-31, -1.000000000000000000, -1.224646799147353207E-16 ) ) ;
#92 = APPROVAL_DATE_TIME ( #190, #175 ) ;
#93 = DIRECTION ( 'NONE',  ( 3.491481338843133355E-15, -1.224646799147353207E-16, 1.000000000000000000 ) ) ;
#94 = EDGE_CURVE ( 'NONE', #57, #57, #271, .T. ) ;
#95 = CONICAL_SURFACE ( 'NONE', #26, 0.5654336271349708065, 0.2217440814658728776 ) ;
#96 = PERSON_AND_ORGANIZATION ( #154, #138 ) ;
#97 = FACE_BOUND ( 'NONE', #314, .T. ) ;
#98 = DIRECTION ( 'NONE',  ( 0.0000000000000000000, 1.000000000000000000, 0.0000000000000000000 ) ) ;
#99 = CC_DESIGN_PERSON_AND_ORGANIZATION_ASSIGNMENT ( #198, #216, ( #340 ) ) ;
#100 = CIRCLE ( 'NONE', #335, 1.999999999999997113 ) ;
#101 = FACE_OUTER_BOUND ( 'NONE', #122, .T. ) ;
#102 = DIRECTION ( 'NONE',  ( -3.491481338843133355E-15, 1.224646799147353207E-16, -1.000000000000000000 ) ) ;
#103 = DIRECTION ( 'NONE',  ( 3.491481338843133355E-15, -1.224646799147353207E-16, 1.000000000000000000 ) ) ;
#104 = ADVANCED_FACE ( 'NONE', ( #145, #250 ), #95, .T. ) ;
#105 = FACE_OUTER_BOUND ( 'NONE', #294, .T. ) ;
#106 = AXIS2_PLACEMENT_3D ( 'NONE', #144, #323, #247 ) ;
#107 = DIRECTION ( 'NONE',  ( 0.0000000000000000000, 0.0000000000000000000, 1.000000000000000000 ) ) ;
#108 = EDGE_LOOP ( 'NONE', ( #58 ) ) ;
#109 = EDGE_LOOP ( 'NONE', ( #213 ) ) ;
#110 = VERTEX_POINT ( 'NONE', #239 ) ;
#111 = LOCAL_TIME ( 11, 22, 59.00000000000000000, #195 ) ;
#112 = VERTEX_POINT ( 'NONE', #236 ) ;
#113 =( NAMED_UNIT ( * ) PLANE_ANGLE_UNIT ( ) SI_UNIT ( $, .RADIAN. ) );
#114 = ORIENTED_EDGE ( 'NONE', *, *, #221, .F. ) ;
#115 = ADVANCED_FACE ( 'NONE', ( #278, #331 ), #59, .T. ) ;
#116 = DIRECTION ( 'NONE',  ( 0.0000000000000000000, -1.000000000000000000, 0.0000000000000000000 ) ) ;
#117 = APPLICATION_CONTEXT ( 'configuration controlled 3d designs of mechanical parts and assemblies' ) ;
#118 = AXIS2_PLACEMENT_3D ( 'NONE', #286, #253, #251 ) ;
#119 = DATE_AND_TIME ( #219, #326 ) ;
#120 = ORIENTED_EDGE ( 'NONE', *, *, #273, .F. ) ;
#121 = CALENDAR_DATE ( 2022, 11, 1 ) ;
#122 = EDGE_LOOP ( 'NONE', ( #311 ) ) ;
#123 = CIRCLE ( 'NONE', #106, 1.959999999999999076 ) ;
#124 = EDGE_LOOP ( 'NONE', ( #186 ) ) ;
#125 = CARTESIAN_POINT ( 'NONE',  ( -5.345155469990194241E-32, 1.874828160885254890E-33, -1.530913372076408585E-17 ) ) ;
#126 = ADVANCED_FACE ( 'NONE', ( #322, #90 ), #189, .T. ) ;
#127 = CARTESIAN_POINT ( 'NONE',  ( 1.326762908760390423E-13, -4.653657836759941941E-15, 38.00000000000000000 ) ) ;
#128 = SECURITY_CLASSIFICATION ( '', '', #267 ) ;
#129 = APPROVAL_PERSON_ORGANIZATION ( #164, #175, #270 ) ;
#130 = DIRECTION ( 'NONE',  ( 4.275831445896958607E-31, 1.000000000000000000, 1.224646799147353207E-16 ) ) ;
#131 = ADVANCED_FACE ( 'NONE', ( #22, #308 ), #20, .T. ) ;
#132 = FACE_OUTER_BOUND ( 'NONE', #109, .T. ) ;
#133 = PLANE ( 'NONE',  #149 ) ;
#134 = VERTEX_POINT ( 'NONE', #2 ) ;
#135 = EDGE_LOOP ( 'NONE', ( #325 ) ) ;
#136 = CARTESIAN_POINT ( 'NONE',  ( 3.281992458512545354E-14, 1.999999999999992228, 9.400000000000000355 ) ) ;
#137 = ORIENTED_EDGE ( 'NONE', *, *, #324, .T. ) ;
#138 = ORGANIZATION ( 'UNSPECIFIED', 'UNSPECIFIED', '' ) ;
#139 = EDGE_LOOP ( 'NONE', ( #321 ) ) ;
#140 = DIRECTION ( 'NONE',  ( -3.491481338843133355E-15, 1.224646799147353207E-16, -1.000000000000000000 ) ) ;
#141 = APPROVAL ( #300, 'UNSPECIFIED' ) ;
#142 = EDGE_LOOP ( 'NONE', ( #319 ) ) ;
#143 = FACE_OUTER_BOUND ( 'NONE', #35, .T. ) ;
#144 = CARTESIAN_POINT ( 'NONE',  ( 3.281992458512545354E-14, -1.151167991198511931E-15, 9.400000000000000355 ) ) ;
#145 = FACE_BOUND ( 'NONE', #266, .T. ) ;
#146 = DIRECTION ( 'NONE',  ( 0.0000000000000000000, -1.000000000000000000, 0.0000000000000000000 ) ) ;
#147 = CARTESIAN_POINT ( 'NONE',  ( 3.142333204958820020E-15, -1.102182119232617788E-16, 0.9000000000000000222 ) ) ;
#148 = DIRECTION ( 'NONE',  ( 0.0000000000000000000, 1.000000000000000000, 0.0000000000000000000 ) ) ;
#149 = AXIS2_PLACEMENT_3D ( 'NONE', #125, #223, #230 ) ;
#150 = AXIS2_PLACEMENT_3D ( 'NONE', #332, #199, #75 ) ;
#151 = FACE_OUTER_BOUND ( 'NONE', #299, .T. ) ;
#152 = FACE_OUTER_BOUND ( 'NONE', #7, .T. ) ;
#153 = CIRCLE ( 'NONE', #9, 1.999999999999993561 ) ;
#154 = PERSON ( 'UNSPECIFIED', 'UNSPECIFIED', 'UNSPECIFIED', ('UNSPECIFIED'), ('UNSPECIFIED'), ('UNSPECIFIED') ) ;
#155 = ORIENTED_EDGE ( 'NONE', *, *, #94, .F. ) ;
#156 = PERSON_AND_ORGANIZATION ( #154, #138 ) ;
#157 = PRODUCT ( '381947', '381947', '', ( #6 ) ) ;
#158 = CARTESIAN_POINT ( 'NONE',  ( 2.754774669301081722E-14, 1.959999999999998632, 7.889988236952307332 ) ) ;
#159 = ORIENTED_EDGE ( 'NONE', *, *, #89, .T. ) ;
#160 = ADVANCED_FACE ( 'NONE', ( #174, #79 ), #339, .T. ) ;
#161 = EDGE_LOOP ( 'NONE', ( #64 ) ) ;
#162 = APPROVAL_STATUS ( 'not_yet_approved' ) ;
#163 = DIRECTION ( 'NONE',  ( -3.491481338843133355E-15, 1.224646799147353207E-16, -1.000000000000000000 ) ) ;
#164 = PERSON_AND_ORGANIZATION ( #154, #138 ) ;
#165 = CIRCLE ( 'NONE', #333, 0.3489692899384953528 ) ;
#166 = PLANE ( 'NONE',  #34 ) ;
#167 = EDGE_CURVE ( 'NONE', #313, #313, #328, .T. ) ;
#168 = AXIS2_PLACEMENT_3D ( 'NONE', #252, #103, #19 ) ;
#169 = FACE_OUTER_BOUND ( 'NONE', #264, .T. ) ;
#170 = DIRECTION ( 'NONE',  ( -3.491481338843133355E-15, 1.224646799147353207E-16, -1.000000000000000000 ) ) ;
#171 = CARTESIAN_POINT ( 'NONE',  ( 0.0000000000000000000, 0.0000000000000000000, 0.0000000000000000000 ) ) ;
#172 = DIRECTION ( 'NONE',  ( -3.491481338843133355E-15, 1.224646799147353207E-16, -1.000000000000000000 ) ) ;
#173 = CARTESIAN_POINT ( 'NONE',  ( 0.0000000000000000000, 0.0000000000000000000, 0.0000000000000000000 ) ) ;
#174 = FACE_OUTER_BOUND ( 'NONE', #1, .T. ) ;
#175 = APPROVAL ( #162, 'UNSPECIFIED' ) ;
#176 = COORDINATED_UNIVERSAL_TIME_OFFSET ( 1, 0, .AHEAD. ) ;
#177 = ORIENTED_EDGE ( 'NONE', *, *, #31, .T. ) ;
#178 = APPROVAL_DATE_TIME ( #263, #70 ) ;
#179 = AXIS2_PLACEMENT_3D ( 'NONE', #201, #56, #54 ) ;
#180 = CIRCLE ( 'NONE', #244, 0.5654336271349708065 ) ;
#181 = MANIFOLD_SOLID_BREP ( 'Corps-Déplacer/Copier1[2]', #15 ) ;
#182 = APPLICATION_PROTOCOL_DEFINITION ( 'international standard', 'config_control_design', 1994, #274 ) ;
#183 = EDGE_LOOP ( 'NONE', ( #205 ) ) ;
#184 = EDGE_CURVE ( 'NONE', #261, #261, #153, .T. ) ;
#185 = CARTESIAN_POINT ( 'NONE',  ( 1.326762908760390423E-13, 1.599999999999991873, 38.00000000000000000 ) ) ;
#186 = ORIENTED_EDGE ( 'NONE', *, *, #167, .T. ) ;
#187 = EDGE_LOOP ( 'NONE', ( #62 ) ) ;
#188 = PERSON_AND_ORGANIZATION ( #154, #138 ) ;
#189 = CYLINDRICAL_SURFACE ( 'NONE', #284, 1.959999999999999076 ) ;
#190 = DATE_AND_TIME ( #68, #249 ) ;
#191 = ADVANCED_FACE ( 'NONE', ( #151, #337 ), #288, .T. ) ;
#192 = CARTESIAN_POINT ( 'NONE',  ( 2.754774669301081722E-14, -9.662448839693912963E-16, 7.889988236952307332 ) ) ;
#193 = PERSON_AND_ORGANIZATION ( #154, #138 ) ;
#194 = DIRECTION ( 'NONE',  ( -4.275831445896958607E-31, -1.000000000000000000, -1.224646799147353207E-16 ) ) ;
#195 = COORDINATED_UNIVERSAL_TIME_OFFSET ( 1, 0, .AHEAD. ) ;
#196 = DIRECTION ( 'NONE',  ( 0.0000000000000000000, 1.000000000000000000, 0.0000000000000000000 ) ) ;
#197 = CC_DESIGN_DATE_AND_TIME_ASSIGNMENT ( #327, #330, ( #128 ) ) ;
#198 = PERSON_AND_ORGANIZATION ( #154, #138 ) ;
#199 = DIRECTION ( 'NONE',  ( -3.491481338843133355E-15, 1.224646799147353207E-16, -1.000000000000000000 ) ) ;
#200 = DIRECTION ( 'NONE',  ( 0.0000000000000000000, 1.000000000000000000, 0.0000000000000000000 ) ) ;
#201 = CARTESIAN_POINT ( 'NONE',  ( 1.326762908760390423E-13, 1.199807826129476644E-32, 38.00000000000000000 ) ) ;
#202 = AXIS2_PLACEMENT_3D ( 'NONE', #8, #277, #194 ) ;
#203 = DIRECTION ( 'NONE',  ( 4.275831445896958607E-31, 1.000000000000000000, 1.224646799147353207E-16 ) ) ;
#204 = PERSON_AND_ORGANIZATION ( #154, #138 ) ;
#205 = ORIENTED_EDGE ( 'NONE', *, *, #281, .F. ) ;
#206 = VERTEX_POINT ( 'NONE', #185 ) ;
#207 = APPROVAL_PERSON_ORGANIZATION ( #204, #70, #61 ) ;
#208 = VERTEX_POINT ( 'NONE', #234 ) ;
#209 = AXIS2_PLACEMENT_3D ( 'NONE', #42, #14, #329 ) ;
#210 = CARTESIAN_POINT ( 'NONE',  ( 2.137183397710479182E-32, 0.2999999999999998224, 6.121136532892404794E-18 ) ) ;
#211 = EDGE_LOOP ( 'NONE', ( #155 ) ) ;
#212 = CARTESIAN_POINT ( 'NONE',  ( 3.142333204958820020E-15, 0.2999999999999998224, 0.9000000000000000222 ) ) ;
#213 = ORIENTED_EDGE ( 'NONE', *, *, #324, .F. ) ;
#214 = CARTESIAN_POINT ( 'NONE',  ( 3.281992458512545354E-14, 2.969524369670470729E-32, 9.400000000000000355 ) ) ;
#215 = CC_DESIGN_PERSON_AND_ORGANIZATION_ASSIGNMENT ( #193, #13, ( #340 ) ) ;
#216 = PERSON_AND_ORGANIZATION_ROLE ( 'design_supplier' ) ;
#217 = ORIENTED_EDGE ( 'NONE', *, *, #43, .T. ) ;
#218 = EDGE_LOOP ( 'NONE', ( #217 ) ) ;
#219 = CALENDAR_DATE ( 2022, 11, 1 ) ;
#220 = ORIENTED_EDGE ( 'NONE', *, *, #343, .T. ) ;
#221 = EDGE_CURVE ( 'NONE', #208, #208, #100, .T. ) ;
#222 = DIRECTION ( 'NONE',  ( 3.491481338843133355E-15, -1.224646799147353207E-16, 1.000000000000000000 ) ) ;
#223 = DIRECTION ( 'NONE',  ( 3.491481338843133355E-15, -1.224646799147353207E-16, 1.000000000000000000 ) ) ;
#224 = CARTESIAN_POINT ( 'NONE',  ( 3.281992458512545354E-14, -1.151167991198511931E-15, 9.400000000000000355 ) ) ;
#225 = AXIS2_PLACEMENT_3D ( 'NONE', #85, #107, #292 ) ;
#226 = CIRCLE ( 'NONE', #21, 0.2999999999999999334 ) ;
#227 = ADVANCED_FACE ( 'NONE', ( #334 ), #338, .F. ) ;
#228 = DIRECTION ( 'NONE',  ( 0.0000000000000000000, 1.000000000000000000, 0.0000000000000000000 ) ) ;
#229 = DIRECTION ( 'NONE',  ( 3.491481338843133355E-15, -1.224646799147353207E-16, 1.000000000000000000 ) ) ;
#230 = DIRECTION ( 'NONE',  ( -4.275831445896958607E-31, -1.000000000000000000, -1.224646799147353207E-16 ) ) ;
#231 = ADVANCED_FACE ( 'NONE', ( #152 ), #78, .F. ) ;
#232 = APPROVAL_PERSON_ORGANIZATION ( #96, #141, #40 ) ;
#233 = VERTEX_POINT ( 'NONE', #158 ) ;
#234 = CARTESIAN_POINT ( 'NONE',  ( 1.312796983405018142E-13, 1.999999999999992228, 37.59999999999999432 ) ) ;
#235 = ORIENTED_EDGE ( 'NONE', *, *, #281, .T. ) ;
#236 = CARTESIAN_POINT ( 'NONE',  ( 3.281992458512545354E-14, 1.959999999999997744, 9.400000000000000355 ) ) ;
#237 = AXIS2_PLACEMENT_3D ( 'NONE', #301, #243, #196 ) ;
#238 = LOCAL_TIME ( 11, 22, 59.00000000000000000, #310 ) ;
#239 = CARTESIAN_POINT ( 'NONE',  ( 1.012529588264508515E-14, 0.8349999999999995204, 2.899999999999999911 ) ) ;
#240 = ORIENTED_EDGE ( 'NONE', *, *, #43, .F. ) ;
#241 = CC_DESIGN_PERSON_AND_ORGANIZATION_ASSIGNMENT ( #260, #27, ( #157 ) ) ;
#242 = CALENDAR_DATE ( 2022, 11, 1 ) ;
#243 = DIRECTION ( 'NONE',  ( -3.491481338843133355E-15, 1.224646799147353207E-16, -1.000000000000000000 ) ) ;
#244 = AXIS2_PLACEMENT_3D ( 'NONE', #44, #41, #276 ) ;
#245 = DIRECTION ( 'NONE',  ( 0.0000000000000000000, 1.000000000000000000, 0.0000000000000000000 ) ) ;
#246 = ADVANCED_FACE ( 'NONE', ( #132 ), #282, .T. ) ;
#247 = DIRECTION ( 'NONE',  ( 0.0000000000000000000, 1.000000000000000000, 0.0000000000000000000 ) ) ;
#248 = PERSON_AND_ORGANIZATION_ROLE ( 'classification_officer' ) ;
#249 = LOCAL_TIME ( 11, 22, 59.00000000000000000, #11 ) ;
#250 = FACE_OUTER_BOUND ( 'NONE', #5, .T. ) ;
#251 = DIRECTION ( 'NONE',  ( 0.0000000000000000000, 1.000000000000000000, 0.0000000000000000000 ) ) ;
#252 = CARTESIAN_POINT ( 'NONE',  ( 3.142333204958820020E-15, 2.249639673992784359E-33, 0.9000000000000000222 ) ) ;
#253 = DIRECTION ( 'NONE',  ( -3.491481338843133355E-15, 1.224646799147353207E-16, -1.000000000000000000 ) ) ;
#254 = CIRCLE ( 'NONE', #84, 1.599999999999996314 ) ;
#255 = DIRECTION ( 'NONE',  ( -3.491481338843133355E-15, 1.224646799147353207E-16, -1.000000000000000000 ) ) ;
#256 = PRODUCT_DEFINITION ( 'UNKNOWN', '', #340, #28 ) ;
#257 = DIRECTION ( 'NONE',  ( 0.0000000000000000000, 1.000000000000000000, 0.0000000000000000000 ) ) ;
#258 =( LENGTH_UNIT ( ) NAMED_UNIT ( * ) SI_UNIT ( .MILLI., .METRE. ) );
#259 = TOROIDAL_SURFACE ( 'NONE', #46, 2.299999999999999822, 2.000000000000000000 ) ;
#260 = PERSON_AND_ORGANIZATION ( #154, #138 ) ;
#261 = VERTEX_POINT ( 'NONE', #136 ) ;
#262 = ADVANCED_FACE ( 'NONE', ( #101 ), #133, .F. ) ;
#263 = DATE_AND_TIME ( #80, #238 ) ;
#264 = EDGE_LOOP ( 'NONE', ( #177 ) ) ;
#265 = CC_DESIGN_SECURITY_CLASSIFICATION ( #128, ( #340 ) ) ;
#266 = EDGE_LOOP ( 'NONE', ( #291 ) ) ;
#267 = SECURITY_CLASSIFICATION_LEVEL ( 'unclassified' ) ;
#268 = DIRECTION ( 'NONE',  ( -3.491481338843133355E-15, 1.224646799147353207E-16, -1.000000000000000000 ) ) ;
#269 = CC_DESIGN_APPROVAL ( #175, ( #340 ) ) ;
#270 = APPROVAL_ROLE ( '' ) ;
#271 = CIRCLE ( 'NONE', #209, 0.2999999999999998224 ) ;
#272 = CARTESIAN_POINT ( 'NONE',  ( 5.237222008264699244E-15, 0.0000000000000000000, 1.499999999999999778 ) ) ;
#273 = EDGE_CURVE ( 'NONE', #134, #134, #226, .T. ) ;
#274 = APPLICATION_CONTEXT ( 'configuration controlled 3d designs of mechanical parts and assemblies' ) ;
#275 = COORDINATED_UNIVERSAL_TIME_OFFSET ( 1, 0, .AHEAD. ) ;
#276 = DIRECTION ( 'NONE',  ( 0.0000000000000000000, 1.000000000000000000, 0.0000000000000000000 ) ) ;
#277 = DIRECTION ( 'NONE',  ( 3.491481338843133355E-15, -1.224646799147353207E-16, 1.000000000000000000 ) ) ;
#278 = FACE_BOUND ( 'NONE', #139, .T. ) ;
#279 = CIRCLE ( 'NONE', #237, 0.8349999999999998535 ) ;
#280 = CARTESIAN_POINT ( 'NONE',  ( 1.326762908760390423E-13, -4.653657836759941941E-15, 38.00000000000000000 ) ) ;
#281 = EDGE_CURVE ( 'NONE', #206, #206, #254, .T. ) ;
#282 = PLANE ( 'NONE',  #168 ) ;
#283 = DIRECTION ( 'NONE',  ( -3.491481338843133355E-15, 1.224646799147353207E-16, -1.000000000000000000 ) ) ;
#284 = AXIS2_PLACEMENT_3D ( 'NONE', #295, #163, #37 ) ;
#285 = DIRECTION ( 'NONE',  ( -3.491481338843133355E-15, 1.224646799147353207E-16, -1.000000000000000000 ) ) ;
#286 = CARTESIAN_POINT ( 'NONE',  ( 5.237222008264700033E-15, -1.836970198721029934E-16, 1.500000000000000000 ) ) ;
#287 = DIRECTION ( 'NONE',  ( 0.0000000000000000000, 1.000000000000000000, 0.0000000000000000000 ) ) ;
#288 = CONICAL_SURFACE ( 'NONE', #298, 1.599999999999996314, 0.7853981633974433940 ) ;
#289 = CARTESIAN_POINT ( 'NONE',  ( 6.772994311974851400E-15, -2.375646609513753807E-16, 1.939862669928808403 ) ) ;
#290 = APPROVAL_STATUS ( 'not_yet_approved' ) ;
#291 = ORIENTED_EDGE ( 'NONE', *, *, #343, .F. ) ;
#292 = DIRECTION ( 'NONE',  ( 1.000000000000000000, 0.0000000000000000000, 0.0000000000000000000 ) ) ;
#293 = CC_DESIGN_APPROVAL ( #141, ( #128 ) ) ;
#294 = EDGE_LOOP ( 'NONE', ( #137 ) ) ;
#295 = CARTESIAN_POINT ( 'NONE',  ( 0.0000000000000000000, 0.0000000000000000000, 0.0000000000000000000 ) ) ;
#296 = FACE_OUTER_BOUND ( 'NONE', #3, .T. ) ;
#297 = APPROVAL_DATE_TIME ( #63, #141 ) ;
#298 = AXIS2_PLACEMENT_3D ( 'NONE', #280, #102, #257 ) ;
#299 = EDGE_LOOP ( 'NONE', ( #114 ) ) ;
#300 = APPROVAL_STATUS ( 'not_yet_approved' ) ;
#301 = CARTESIAN_POINT ( 'NONE',  ( 1.012529588264508515E-14, -3.551475717527323832E-16, 2.899999999999999911 ) ) ;
#302 = MANIFOLD_SOLID_BREP ( 'Corps-Déplacer/Copier1[1]', #52 ) ;
#303 = CARTESIAN_POINT ( 'NONE',  ( 2.754774669301081722E-14, -9.662448839693912963E-16, 7.889988236952307332 ) ) ;
#304 = CYLINDRICAL_SURFACE ( 'NONE', #45, 0.2999999999999998779 ) ;
#305 = AXIS2_PLACEMENT_3D ( 'NONE', #306, #76, #130 ) ;
#306 = CARTESIAN_POINT ( 'NONE',  ( 0.0000000000000000000, 0.0000000000000000000, 0.0000000000000000000 ) ) ;
#307 = ADVANCED_FACE ( 'NONE', ( #51, #105 ), #304, .T. ) ;
#308 = FACE_OUTER_BOUND ( 'NONE', #135, .T. ) ;
#309 = DIRECTION ( 'NONE',  ( -4.275831445896958607E-31, -1.000000000000000000, -1.224646799147353207E-16 ) ) ;
#310 = COORDINATED_UNIVERSAL_TIME_OFFSET ( 1, 0, .AHEAD. ) ;
#311 = ORIENTED_EDGE ( 'NONE', *, *, #94, .T. ) ;
#312 = CC_DESIGN_DATE_AND_TIME_ASSIGNMENT ( #119, #65, ( #256 ) ) ;
#313 = VERTEX_POINT ( 'NONE', #30 ) ;
#314 = EDGE_LOOP ( 'NONE', ( #240 ) ) ;
#315 = LOCAL_TIME ( 11, 22, 59.00000000000000000, #275 ) ;
#316 = CIRCLE ( 'NONE', #336, 1.959999999999999520 ) ;
#317 = VERTEX_POINT ( 'NONE', #342 ) ;
#318 = VERTEX_POINT ( 'NONE', #24 ) ;
#319 = ORIENTED_EDGE ( 'NONE', *, *, #184, .F. ) ;
#320 = CC_DESIGN_PERSON_AND_ORGANIZATION_ASSIGNMENT ( #188, #248, ( #128 ) ) ;
#321 = ORIENTED_EDGE ( 'NONE', *, *, #31, .F. ) ;
#322 = FACE_OUTER_BOUND ( 'NONE', #10, .T. ) ;
#323 = DIRECTION ( 'NONE',  ( -3.491481338843133355E-15, 1.224646799147353207E-16, -1.000000000000000000 ) ) ;
#324 = EDGE_CURVE ( 'NONE', #60, #60, #4, .T. ) ;
#325 = ORIENTED_EDGE ( 'NONE', *, *, #221, .T. ) ;
#326 = LOCAL_TIME ( 11, 22, 59.00000000000000000, #176 ) ;
#327 = DATE_AND_TIME ( #121, #111 ) ;
#328 = CIRCLE ( 'NONE', #118, 0.2999999999999999889 ) ;
#329 = DIRECTION ( 'NONE',  ( 4.275831445896958607E-31, 1.000000000000000000, 1.224646799147353207E-16 ) ) ;
#330 = DATE_TIME_ROLE ( 'classification_date' ) ;
#331 = FACE_OUTER_BOUND ( 'NONE', #108, .T. ) ;
#332 = CARTESIAN_POINT ( 'NONE',  ( 3.142333204958820020E-15, -1.102182119232617788E-16, 0.9000000000000000222 ) ) ;
#333 = AXIS2_PLACEMENT_3D ( 'NONE', #289, #140, #287 ) ;
#334 = FACE_OUTER_BOUND ( 'NONE', #183, .T. ) ;
#335 = AXIS2_PLACEMENT_3D ( 'NONE', #49, #255, #98 ) ;
#336 = AXIS2_PLACEMENT_3D ( 'NONE', #192, #268, #245 ) ;
#337 = FACE_BOUND ( 'NONE', #73, .T. ) ;
#338 = PLANE ( 'NONE',  #179 ) ;
#339 = CYLINDRICAL_SURFACE ( 'NONE', #74, 0.2999999999999999334 ) ;
#340 = PRODUCT_DEFINITION_FORMATION_WITH_SPECIFIED_SOURCE ( 'ANY', '', #157, .NOT_KNOWN. ) ;
#341 = AXIS2_PLACEMENT_3D ( 'NONE', #303, #47, #116 ) ;
#342 = CARTESIAN_POINT ( 'NONE',  ( 6.772994311974851400E-15, 0.3489692899384951308, 1.939862669928808403 ) ) ;
#343 = EDGE_CURVE ( 'NONE', #317, #317, #165, .T. ) ;
ENDSEC;
END-ISO-10303-21;
