ISO-10303-21;
HEADER;
FILE_DESCRIPTION (( 'STEP AP203' ),
    '1' );
FILE_NAME ('381946.step',
    '2022-01-11T10:22:59',
    ( '' ),
    ( '' ),
    'SwSTEP 2.0',
    'SolidWorks 2019',
    '' );
FILE_SCHEMA (( 'CONFIG_CONTROL_DESIGN' ));
ENDSEC;

DATA;
#1 = EDGE_LOOP ( 'NONE', ( #23 ) ) ;
#2 = DIRECTION ( 'NONE',  ( -4.275831445896958607E-31, -1.000000000000000000, -1.224646799147353207E-16 ) ) ;
#3 = VERTEX_POINT ( 'NONE', #60 ) ;
#4 = CIRCLE ( 'NONE', #51, 1.999999999999993561 ) ;
#5 = AXIS2_PLACEMENT_3D ( 'NONE', #29, #216, #55 ) ;
#6 = DIRECTION ( 'NONE',  ( -3.491481338843133355E-15, 1.224646799147353207E-16, -1.000000000000000000 ) ) ;
#7 = CC_DESIGN_PERSON_AND_ORGANIZATION_ASSIGNMENT ( #143, #252, ( #31 ) ) ;
#8 = VERTEX_POINT ( 'NONE', #107 ) ;
#9 = EDGE_LOOP ( 'NONE', ( #37 ) ) ;
#10 = APPLICATION_PROTOCOL_DEFINITION ( 'international standard', 'config_control_design', 1994, #53 ) ;
#11 = CIRCLE ( 'NONE', #5, 0.2989692899384951419 ) ;
#12 = PERSON_AND_ORGANIZATION ( #179, #93 ) ;
#13 = CARTESIAN_POINT ( 'NONE',  ( 3.281992458512545354E-14, 2.969524369670470729E-32, 9.400000000000000355 ) ) ;
#14 = APPROVAL_DATE_TIME ( #39, #97 ) ;
#15 = EDGE_LOOP ( 'NONE', ( #178 ) ) ;
#16 = PERSON_AND_ORGANIZATION_ROLE ( 'design_owner' ) ;
#17 = ADVANCED_FACE ( 'NONE', ( #18, #307 ), #47, .F. ) ;
#18 = FACE_BOUND ( 'NONE', #271, .T. ) ;
#19 = CONICAL_SURFACE ( 'NONE', #74, 0.3914353388388224775, 0.2217440814658728498 ) ;
#20 = AXIS2_PLACEMENT_3D ( 'NONE', #264, #54, #153 ) ;
#21 = DATE_AND_TIME ( #115, #136 ) ;
#22 = ORIENTED_EDGE ( 'NONE', *, *, #250, .F. ) ;
#23 = ORIENTED_EDGE ( 'NONE', *, *, #260, .F. ) ;
#24 = DIRECTION ( 'NONE',  ( 0.0000000000000000000, 1.000000000000000000, 0.0000000000000000000 ) ) ;
#25 = AXIS2_PLACEMENT_3D ( 'NONE', #152, #150, #181 ) ;
#26 = APPROVAL_PERSON_ORGANIZATION ( #78, #197, #186 ) ;
#27 = DIRECTION ( 'NONE',  ( 4.275831445896958607E-31, 1.000000000000000000, 1.224646799147353207E-16 ) ) ;
#28 = DIRECTION ( 'NONE',  ( 0.0000000000000000000, 1.000000000000000000, 0.0000000000000000000 ) ) ;
#29 = CARTESIAN_POINT ( 'NONE',  ( 5.900123977264069639E-15, -2.069484909726915936E-16, 1.689862669928808847 ) ) ;
#30 = FACE_OUTER_BOUND ( 'NONE', #95, .T. ) ;
#31 = SECURITY_CLASSIFICATION ( '', '', #274 ) ;
#32 = VERTEX_POINT ( 'NONE', #135 ) ;
#33 = CYLINDRICAL_SURFACE ( 'NONE', #192, 0.2500000000000000000 ) ;
#34 = EDGE_CURVE ( 'NONE', #32, #32, #185, .T. ) ;
#35 = CARTESIAN_POINT ( 'NONE',  ( 2.793185071074506684E-15, 1.874699728327320299E-33, 0.8000000000000000444 ) ) ;
#36 = DIRECTION ( 'NONE',  ( -3.491481338843133355E-15, 1.224646799147353207E-16, -1.000000000000000000 ) ) ;
#37 = ORIENTED_EDGE ( 'NONE', *, *, #276, .F. ) ;
#38 = EDGE_LOOP ( 'NONE', ( #133 ) ) ;
#39 = DATE_AND_TIME ( #176, #213 ) ;
#40 = EDGE_LOOP ( 'NONE', ( #273 ) ) ;
#41 = CIRCLE ( 'NONE', #251, 1.959999999999999076 ) ;
#42 = DIRECTION ( 'NONE',  ( -3.491481338843133355E-15, 1.224646799147353207E-16, -1.000000000000000000 ) ) ;
#43 = PERSON_AND_ORGANIZATION_ROLE ( 'creator' ) ;
#44 = DIRECTION ( 'NONE',  ( -4.275831445896958607E-31, -1.000000000000000000, -1.224646799147353207E-16 ) ) ;
#45 = APPROVAL_STATUS ( 'not_yet_approved' ) ;
#46 = PLANE ( 'NONE',  #111 ) ;
#47 = PLANE ( 'NONE',  #303 ) ;
#48 = CARTESIAN_POINT ( 'NONE',  ( 2.653552326032924325E-14, -9.307408652864167140E-16, 7.600075923396318878 ) ) ;
#49 = ADVANCED_FACE ( 'NONE', ( #144, #91 ), #202, .F. ) ;
#50 = CARTESIAN_POINT ( 'NONE',  ( 7.332110811570581624E-15, -2.571758278209441957E-16, 2.100000000000000089 ) ) ;
#51 = AXIS2_PLACEMENT_3D ( 'NONE', #76, #102, #336 ) ;
#52 = ORIENTED_EDGE ( 'NONE', *, *, #254, .T. ) ;
#53 = APPLICATION_CONTEXT ( 'configuration controlled 3d designs of mechanical parts and assemblies' ) ;
#54 = DIRECTION ( 'NONE',  ( -3.491481338843133355E-15, 1.224646799147353207E-16, -1.000000000000000000 ) ) ;
#55 = DIRECTION ( 'NONE',  ( 0.0000000000000000000, 1.000000000000000000, 0.0000000000000000000 ) ) ;
#56 = DIRECTION ( 'NONE',  ( 0.0000000000000000000, 1.000000000000000000, 0.0000000000000000000 ) ) ;
#57 = DIRECTION ( 'NONE',  ( -3.491481338843133355E-15, 1.224646799147353207E-16, -1.000000000000000000 ) ) ;
#58 = CYLINDRICAL_SURFACE ( 'NONE', #292, 0.2499999999999999445 ) ;
#59 = LOCAL_TIME ( 11, 22, 59.00000000000000000, #334 ) ;
#60 = CARTESIAN_POINT ( 'NONE',  ( 7.332110811570578468E-15, 0.7199999999999998623, 2.099999999999999645 ) ) ;
#61 = CC_DESIGN_PERSON_AND_ORGANIZATION_ASSIGNMENT ( #12, #167, ( #157 ) ) ;
#62 = PERSON_AND_ORGANIZATION ( #179, #93 ) ;
#63 = ORIENTED_EDGE ( 'NONE', *, *, #92, .T. ) ;
#64 = MANIFOLD_SOLID_BREP ( 'Corps-Déplacer/Copier1[2]', #245 ) ;
#65 = DATE_TIME_ROLE ( 'creation_date' ) ;
#66 = ORIENTED_EDGE ( 'NONE', *, *, #34, .F. ) ;
#67 = AXIS2_PLACEMENT_3D ( 'NONE', #84, #268, #56 ) ;
#68 = VERTEX_POINT ( 'NONE', #171 ) ;
#69 = DIRECTION ( 'NONE',  ( 3.491481338843133355E-15, -1.224646799147353207E-16, 1.000000000000000000 ) ) ;
#70 = DATE_AND_TIME ( #94, #305 ) ;
#71 = ORIENTED_EDGE ( 'NONE', *, *, #34, .T. ) ;
#72 = APPROVAL_DATE_TIME ( #21, #161 ) ;
#73 = FACE_OUTER_BOUND ( 'NONE', #299, .T. ) ;
#74 = AXIS2_PLACEMENT_3D ( 'NONE', #50, #187, #208 ) ;
#75 = CALENDAR_DATE ( 2022, 11, 1 ) ;
#76 = CARTESIAN_POINT ( 'NONE',  ( 3.281992458512545354E-14, -1.151167991198511931E-15, 9.400000000000000355 ) ) ;
#77 = FACE_OUTER_BOUND ( 'NONE', #312, .T. ) ;
#78 = PERSON_AND_ORGANIZATION ( #179, #93 ) ;
#79 = DIRECTION ( 'NONE',  ( 0.0000000000000000000, 1.000000000000000000, 0.0000000000000000000 ) ) ;
#80 = AXIS2_PLACEMENT_3D ( 'NONE', #259, #126, #89 ) ;
#81 = FACE_OUTER_BOUND ( 'NONE', #333, .T. ) ;
#82 = FACE_OUTER_BOUND ( 'NONE', #38, .T. ) ;
#83 = CC_DESIGN_APPROVAL ( #197, ( #31 ) ) ;
#84 = CARTESIAN_POINT ( 'NONE',  ( 1.326762908760390423E-13, -4.653657836759941941E-15, 38.00000000000000000 ) ) ;
#85 = FACE_OUTER_BOUND ( 'NONE', #1, .T. ) ;
#86 = EDGE_CURVE ( 'NONE', #244, #244, #155, .T. ) ;
#87 = AXIS2_PLACEMENT_3D ( 'NONE', #283, #210, #130 ) ;
#88 = PERSON_AND_ORGANIZATION_ROLE ( 'creator' ) ;
#89 = DIRECTION ( 'NONE',  ( -4.275831445896958607E-31, -1.000000000000000000, -1.224646799147353207E-16 ) ) ;
#90 = CIRCLE ( 'NONE', #99, 1.999999999999997113 ) ;
#91 = FACE_OUTER_BOUND ( 'NONE', #297, .T. ) ;
#92 = EDGE_CURVE ( 'NONE', #3, #3, #239, .T. ) ;
#93 = ORGANIZATION ( 'UNSPECIFIED', 'UNSPECIFIED', '' ) ;
#94 = CALENDAR_DATE ( 2022, 11, 1 ) ;
#95 = EDGE_LOOP ( 'NONE', ( #139 ) ) ;
#96 = CARTESIAN_POINT ( 'NONE',  ( 7.332110811570578468E-15, -2.571758278209440971E-16, 2.099999999999999645 ) ) ;
#97 = APPROVAL ( #45, 'UNSPECIFIED' ) ;
#98 = ORIENTED_EDGE ( 'NONE', *, *, #242, .T. ) ;
#99 = AXIS2_PLACEMENT_3D ( 'NONE', #263, #314, #315 ) ;
#100 = CARTESIAN_POINT ( 'NONE',  ( 1.326762908760390423E-13, 1.199807826129476644E-32, 38.00000000000000000 ) ) ;
#101 = DIRECTION ( 'NONE',  ( -3.491481338843133355E-15, 1.224646799147353207E-16, -1.000000000000000000 ) ) ;
#102 = DIRECTION ( 'NONE',  ( -3.491481338843133355E-15, 1.224646799147353207E-16, -1.000000000000000000 ) ) ;
#103 = AXIS2_PLACEMENT_3D ( 'NONE', #330, #42, #121 ) ;
#104 = EDGE_LOOP ( 'NONE', ( #172 ) ) ;
#105 = AXIS2_PLACEMENT_3D ( 'NONE', #236, #343, #313 ) ;
#106 = DIRECTION ( 'NONE',  ( -3.491481338843133355E-15, 1.224646799147353207E-16, -1.000000000000000000 ) ) ;
#107 = CARTESIAN_POINT ( 'NONE',  ( 2.793185071074506684E-15, 0.2499999999999998890, 0.8000000000000000444 ) ) ;
#108 = ORIENTED_EDGE ( 'NONE', *, *, #254, .F. ) ;
#109 = FACE_OUTER_BOUND ( 'NONE', #301, .T. ) ;
#110 = PRODUCT ( '381946', '381946', '', ( #306 ) ) ;
#111 = AXIS2_PLACEMENT_3D ( 'NONE', #123, #175, #147 ) ;
#112 = CIRCLE ( 'NONE', #105, 1.959999999999999520 ) ;
#113 = VERTEX_POINT ( 'NONE', #248 ) ;
#114 = ORIENTED_EDGE ( 'NONE', *, *, #342, .T. ) ;
#115 = CALENDAR_DATE ( 2022, 11, 1 ) ;
#116 = AXIS2_PLACEMENT_3D ( 'NONE', #338, #101, #24 ) ;
#117 =( NAMED_UNIT ( * ) PLANE_ANGLE_UNIT ( ) SI_UNIT ( $, .RADIAN. ) );
#118 = DIRECTION ( 'NONE',  ( -4.275831445896958607E-31, -1.000000000000000000, -1.224646799147353207E-16 ) ) ;
#119 = CC_DESIGN_PERSON_AND_ORGANIZATION_ASSIGNMENT ( #223, #43, ( #295 ) ) ;
#120 = ORIENTED_EDGE ( 'NONE', *, *, #260, .T. ) ;
#121 = DIRECTION ( 'NONE',  ( 0.0000000000000000000, 1.000000000000000000, 0.0000000000000000000 ) ) ;
#122 = CARTESIAN_POINT ( 'NONE',  ( 5.900123977264069639E-15, 0.2989692899384949198, 1.689862669928808847 ) ) ;
#123 = CARTESIAN_POINT ( 'NONE',  ( 2.793185071074506684E-15, 1.874699728327320299E-33, 0.8000000000000000444 ) ) ;
#124 = ADVANCED_FACE ( 'NONE', ( #331 ), #46, .T. ) ;
#125 = DATE_AND_TIME ( #75, #286 ) ;
#126 = DIRECTION ( 'NONE',  ( 3.491481338843133355E-15, -1.224646799147353207E-16, 1.000000000000000000 ) ) ;
#127 = SHAPE_DEFINITION_REPRESENTATION ( #243, #214 ) ;
#128 = DIRECTION ( 'NONE',  ( -3.491481338843133355E-15, 1.224646799147353207E-16, -1.000000000000000000 ) ) ;
#129 = PRODUCT_RELATED_PRODUCT_CATEGORY ( 'detail', '', ( #110 ) ) ;
#130 = DIRECTION ( 'NONE',  ( 4.275831445896958607E-31, 1.000000000000000000, 1.224646799147353207E-16 ) ) ;
#131 = CIRCLE ( 'NONE', #166, 0.3914353388388224775 ) ;
#132 = CYLINDRICAL_SURFACE ( 'NONE', #25, 1.959999999999999076 ) ;
#133 = ORIENTED_EDGE ( 'NONE', *, *, #182, .T. ) ;
#134 = CARTESIAN_POINT ( 'NONE',  ( 3.281992458512545354E-14, -1.151167991198511931E-15, 9.400000000000000355 ) ) ;
#135 = CARTESIAN_POINT ( 'NONE',  ( 4.364351673553916694E-15, 0.2499999999999998890, 1.250000000000000000 ) ) ;
#136 = LOCAL_TIME ( 11, 22, 59.00000000000000000, #226 ) ;
#137 = VERTEX_POINT ( 'NONE', #326 ) ;
#138 = VERTEX_POINT ( 'NONE', #217 ) ;
#139 = ORIENTED_EDGE ( 'NONE', *, *, #242, .F. ) ;
#140 = CARTESIAN_POINT ( 'NONE',  ( 1.326762908760390423E-13, 1.599999999999991873, 38.00000000000000000 ) ) ;
#141 = AXIS2_PLACEMENT_3D ( 'NONE', #255, #142, #258 ) ;
#142 = DIRECTION ( 'NONE',  ( -3.491481338843133355E-15, 1.224646799147353207E-16, -1.000000000000000000 ) ) ;
#143 = PERSON_AND_ORGANIZATION ( #179, #93 ) ;
#144 = FACE_BOUND ( 'NONE', #15, .T. ) ;
#145 = APPROVAL_ROLE ( '' ) ;
#146 = ADVANCED_FACE ( 'NONE', ( #73 ), #281, .F. ) ;
#147 = DIRECTION ( 'NONE',  ( -4.275831445896958607E-31, -1.000000000000000000, -1.224646799147353207E-16 ) ) ;
#148 = TOROIDAL_SURFACE ( 'NONE', #206, 2.250000000000000000, 2.000000000000000000 ) ;
#149 = ORIENTED_EDGE ( 'NONE', *, *, #92, .F. ) ;
#150 = DIRECTION ( 'NONE',  ( -3.491481338843133355E-15, 1.224646799147353207E-16, -1.000000000000000000 ) ) ;
#151 = ADVANCED_FACE ( 'NONE', ( #341, #284 ), #318, .T. ) ;
#152 = CARTESIAN_POINT ( 'NONE',  ( 0.0000000000000000000, 0.0000000000000000000, 0.0000000000000000000 ) ) ;
#153 = DIRECTION ( 'NONE',  ( 4.275831445896958607E-31, 1.000000000000000000, 1.224646799147353207E-16 ) ) ;
#154 = ADVANCED_FACE ( 'NONE', ( #240, #82 ), #19, .T. ) ;
#155 = CIRCLE ( 'NONE', #141, 1.599999999999996314 ) ;
#156 = CONICAL_SURFACE ( 'NONE', #67, 1.599999999999996314, 0.7853981633974433940 ) ;
#157 = PRODUCT_DEFINITION_FORMATION_WITH_SPECIFIED_SOURCE ( 'ANY', '', #110, .NOT_KNOWN. ) ;
#158 = FACE_OUTER_BOUND ( 'NONE', #253, .T. ) ;
#159 = DIRECTION ( 'NONE',  ( 4.338314491551686298E-31, 1.000000000000000000, 1.224646799147353207E-16 ) ) ;
#160 = DIRECTION ( 'NONE',  ( 0.0000000000000000000, 1.000000000000000000, 0.0000000000000000000 ) ) ;
#161 = APPROVAL ( #328, 'UNSPECIFIED' ) ;
#162 = FACE_OUTER_BOUND ( 'NONE', #40, .T. ) ;
#163 = CARTESIAN_POINT ( 'NONE',  ( 2.653552326032924325E-14, 1.959999999999998632, 7.600075923396318878 ) ) ;
#164 = CARTESIAN_POINT ( 'NONE',  ( 0.0000000000000000000, 0.0000000000000000000, 0.0000000000000000000 ) ) ;
#165 = ORIENTED_EDGE ( 'NONE', *, *, #237, .T. ) ;
#166 = AXIS2_PLACEMENT_3D ( 'NONE', #238, #128, #79 ) ;
#167 = PERSON_AND_ORGANIZATION_ROLE ( 'design_supplier' ) ;
#168 =( GEOMETRIC_REPRESENTATION_CONTEXT ( 3 ) GLOBAL_UNCERTAINTY_ASSIGNED_CONTEXT ( ( #340 ) ) GLOBAL_UNIT_ASSIGNED_CONTEXT ( ( #329, #117, #332 ) ) REPRESENTATION_CONTEXT ( 'NONE', 'WORKASPACE' ) );
#169 = EDGE_LOOP ( 'NONE', ( #165 ) ) ;
#170 = CC_DESIGN_APPROVAL ( #97, ( #157 ) ) ;
#171 = CARTESIAN_POINT ( 'NONE',  ( 3.281992458512545354E-14, 1.959999999999997744, 9.400000000000000355 ) ) ;
#172 = ORIENTED_EDGE ( 'NONE', *, *, #219, .F. ) ;
#173 = CC_DESIGN_DATE_AND_TIME_ASSIGNMENT ( #125, #230, ( #31 ) ) ;
#174 = PERSON_AND_ORGANIZATION ( #179, #93 ) ;
#175 = DIRECTION ( 'NONE',  ( 3.491481338843133355E-15, -1.224646799147353207E-16, 1.000000000000000000 ) ) ;
#176 = CALENDAR_DATE ( 2022, 11, 1 ) ;
#177 = AXIS2_PLACEMENT_3D ( 'NONE', #100, #106, #27 ) ;
#178 = ORIENTED_EDGE ( 'NONE', *, *, #182, .F. ) ;
#179 = PERSON ( 'UNSPECIFIED', 'UNSPECIFIED', 'UNSPECIFIED', ('UNSPECIFIED'), ('UNSPECIFIED'), ('UNSPECIFIED') ) ;
#180 = APPLICATION_CONTEXT ( 'configuration controlled 3d designs of mechanical parts and assemblies' ) ;
#181 = DIRECTION ( 'NONE',  ( 4.275831445896958607E-31, 1.000000000000000000, 1.224646799147353207E-16 ) ) ;
#182 = EDGE_CURVE ( 'NONE', #137, #137, #131, .T. ) ;
#183 = CALENDAR_DATE ( 2022, 11, 1 ) ;
#184 = CARTESIAN_POINT ( 'NONE',  ( 2.793185071074506684E-15, -9.797174393178826150E-17, 0.8000000000000000444 ) ) ;
#185 = CIRCLE ( 'NONE', #103, 0.2500000000000000555 ) ;
#186 = APPROVAL_ROLE ( '' ) ;
#187 = DIRECTION ( 'NONE',  ( 3.491481338843133355E-15, -1.224646799147353207E-16, 1.000000000000000000 ) ) ;
#188 = EDGE_LOOP ( 'NONE', ( #149 ) ) ;
#189 = ADVANCED_FACE ( 'NONE', ( #234 ), #266, .F. ) ;
#190 = CARTESIAN_POINT ( 'NONE',  ( 4.364351673553916694E-15, 0.0000000000000000000, 1.250000000000000000 ) ) ;
#191 = AXIS2_PLACEMENT_3D ( 'NONE', #48, #289, #235 ) ;
#192 = AXIS2_PLACEMENT_3D ( 'NONE', #296, #36, #294 ) ;
#193 = PLANE ( 'NONE',  #269 ) ;
#194 = ADVANCED_FACE ( 'NONE', ( #77, #282 ), #132, .T. ) ;
#195 = FACE_OUTER_BOUND ( 'NONE', #104, .T. ) ;
#196 = FACE_OUTER_BOUND ( 'NONE', #231, .T. ) ;
#197 = APPROVAL ( #262, 'UNSPECIFIED' ) ;
#198 = ORIENTED_EDGE ( 'NONE', *, *, #86, .T. ) ;
#199 = PERSON_AND_ORGANIZATION ( #179, #93 ) ;
#200 = EDGE_LOOP ( 'NONE', ( #275 ) ) ;
#201 = DIRECTION ( 'NONE',  ( 0.0000000000000000000, 0.0000000000000000000, 1.000000000000000000 ) ) ;
#202 = PLANE ( 'NONE',  #291 ) ;
#203 = VERTEX_POINT ( 'NONE', #311 ) ;
#204 = ORIENTED_EDGE ( 'NONE', *, *, #237, .F. ) ;
#205 = FACE_BOUND ( 'NONE', #335, .T. ) ;
#206 = AXIS2_PLACEMENT_3D ( 'NONE', #190, #6, #159 ) ;
#207 = COORDINATED_UNIVERSAL_TIME_OFFSET ( 1, 0, .AHEAD. ) ;
#208 = DIRECTION ( 'NONE',  ( 0.0000000000000000000, -1.000000000000000000, 0.0000000000000000000 ) ) ;
#209 = FACE_BOUND ( 'NONE', #188, .T. ) ;
#210 = DIRECTION ( 'NONE',  ( -3.491481338843133355E-15, 1.224646799147353207E-16, -1.000000000000000000 ) ) ;
#211 = EDGE_LOOP ( 'NONE', ( #204 ) ) ;
#212 = ADVANCED_FACE ( 'NONE', ( #209, #81 ), #233, .T. ) ;
#213 = LOCAL_TIME ( 11, 22, 59.00000000000000000, #272 ) ;
#214 = ADVANCED_BREP_SHAPE_REPRESENTATION ( '381946', ( #290, #64, #246 ), #168 ) ;
#215 = DESIGN_CONTEXT ( 'detailed design', #53, 'design' ) ;
#216 = DIRECTION ( 'NONE',  ( -3.491481338843133355E-15, 1.224646799147353207E-16, -1.000000000000000000 ) ) ;
#217 = CARTESIAN_POINT ( 'NONE',  ( 1.312796983405018142E-13, 1.999999999999992228, 37.59999999999999432 ) ) ;
#218 = CLOSED_SHELL ( 'NONE', ( #310, #337, #316, #154, #49, #212, #194, #17, #151, #302, #189 ) ) ;
#219 = EDGE_CURVE ( 'NONE', #8, #8, #267, .T. ) ;
#220 = CARTESIAN_POINT ( 'NONE',  ( 0.0000000000000000000, 0.0000000000000000000, 0.0000000000000000000 ) ) ;
#221 = VERTEX_POINT ( 'NONE', #163 ) ;
#222 = VERTEX_POINT ( 'NONE', #122 ) ;
#223 = PERSON_AND_ORGANIZATION ( #179, #93 ) ;
#224 = DIRECTION ( 'NONE',  ( -3.491481338843133355E-15, 1.224646799147353207E-16, -1.000000000000000000 ) ) ;
#225 = DIRECTION ( 'NONE',  ( 3.491481338843133355E-15, -1.224646799147353207E-16, 1.000000000000000000 ) ) ;
#226 = COORDINATED_UNIVERSAL_TIME_OFFSET ( 1, 0, .AHEAD. ) ;
#227 = CC_DESIGN_APPROVAL ( #161, ( #295 ) ) ;
#228 = DIRECTION ( 'NONE',  ( 0.0000000000000000000, 1.000000000000000000, 0.0000000000000000000 ) ) ;
#229 = EDGE_LOOP ( 'NONE', ( #98 ) ) ;
#230 = DATE_TIME_ROLE ( 'classification_date' ) ;
#231 = EDGE_LOOP ( 'NONE', ( #277 ) ) ;
#232 = CC_DESIGN_PERSON_AND_ORGANIZATION_ASSIGNMENT ( #199, #88, ( #157 ) ) ;
#233 = CONICAL_SURFACE ( 'NONE', #191, 1.959999999999999520, 0.2217440814658727943 ) ;
#234 = FACE_OUTER_BOUND ( 'NONE', #200, .T. ) ;
#235 = DIRECTION ( 'NONE',  ( 0.0000000000000000000, -1.000000000000000000, 0.0000000000000000000 ) ) ;
#236 = CARTESIAN_POINT ( 'NONE',  ( 2.653552326032924325E-14, -9.307408652864167140E-16, 7.600075923396318878 ) ) ;
#237 = EDGE_CURVE ( 'NONE', #247, #247, #4, .T. ) ;
#238 = CARTESIAN_POINT ( 'NONE',  ( 7.332110811570581624E-15, -2.571758278209441957E-16, 2.100000000000000089 ) ) ;
#239 = CIRCLE ( 'NONE', #322, 0.7200000000000000844 ) ;
#240 = FACE_BOUND ( 'NONE', #9, .T. ) ;
#241 = ORIENTED_EDGE ( 'NONE', *, *, #250, .T. ) ;
#242 = EDGE_CURVE ( 'NONE', #138, #138, #90, .T. ) ;
#243 = PRODUCT_DEFINITION_SHAPE ( 'NONE', 'NONE',  #295 ) ;
#244 = VERTEX_POINT ( 'NONE', #140 ) ;
#245 = CLOSED_SHELL ( 'NONE', ( #146, #319, #124 ) ) ;
#246 = AXIS2_PLACEMENT_3D ( 'NONE', #164, #201, #300 ) ;
#247 = VERTEX_POINT ( 'NONE', #270 ) ;
#248 = CARTESIAN_POINT ( 'NONE',  ( 2.793185071074506684E-15, 0.2499999999999998890, 0.8000000000000000444 ) ) ;
#249 = EDGE_LOOP ( 'NONE', ( #114 ) ) ;
#250 = EDGE_CURVE ( 'NONE', #113, #113, #317, .T. ) ;
#251 = AXIS2_PLACEMENT_3D ( 'NONE', #134, #57, #160 ) ;
#252 = PERSON_AND_ORGANIZATION_ROLE ( 'classification_officer' ) ;
#253 = EDGE_LOOP ( 'NONE', ( #71 ) ) ;
#254 = EDGE_CURVE ( 'NONE', #221, #221, #112, .T. ) ;
#255 = CARTESIAN_POINT ( 'NONE',  ( 1.326762908760390423E-13, -4.653657836759941941E-15, 38.00000000000000000 ) ) ;
#256 = APPROVAL_ROLE ( '' ) ;
#257 = AXIS2_PLACEMENT_3D ( 'NONE', #184, #288, #28 ) ;
#258 = DIRECTION ( 'NONE',  ( 0.0000000000000000000, 1.000000000000000000, 0.0000000000000000000 ) ) ;
#259 = CARTESIAN_POINT ( 'NONE',  ( -4.276197608515956341E-32, 1.499888215219790659E-33, -1.224751672289570653E-17 ) ) ;
#260 = EDGE_CURVE ( 'NONE', #203, #203, #304, .T. ) ;
#261 = APPROVAL_DATE_TIME ( #287, #197 ) ;
#262 = APPROVAL_STATUS ( 'not_yet_approved' ) ;
#263 = CARTESIAN_POINT ( 'NONE',  ( 1.312796983405018142E-13, -4.604671964794046935E-15, 37.59999999999999432 ) ) ;
#264 = CARTESIAN_POINT ( 'NONE',  ( -8.552395217031912681E-32, 2.999776430439581318E-33, -2.449503344579141306E-17 ) ) ;
#265 = EDGE_LOOP ( 'NONE', ( #22 ) ) ;
#266 = PLANE ( 'NONE',  #177 ) ;
#267 = CIRCLE ( 'NONE', #116, 0.2500000000000000000 ) ;
#268 = DIRECTION ( 'NONE',  ( -3.491481338843133355E-15, 1.224646799147353207E-16, -1.000000000000000000 ) ) ;
#269 = AXIS2_PLACEMENT_3D ( 'NONE', #35, #320, #2 ) ;
#270 = CARTESIAN_POINT ( 'NONE',  ( 3.281992458512545354E-14, 1.999999999999992228, 9.400000000000000355 ) ) ;
#271 = EDGE_LOOP ( 'NONE', ( #278 ) ) ;
#272 = COORDINATED_UNIVERSAL_TIME_OFFSET ( 1, 0, .AHEAD. ) ;
#273 = ORIENTED_EDGE ( 'NONE', *, *, #276, .T. ) ;
#274 = SECURITY_CLASSIFICATION_LEVEL ( 'unclassified' ) ;
#275 = ORIENTED_EDGE ( 'NONE', *, *, #86, .F. ) ;
#276 = EDGE_CURVE ( 'NONE', #222, #222, #11, .T. ) ;
#277 = ORIENTED_EDGE ( 'NONE', *, *, #219, .T. ) ;
#278 = ORIENTED_EDGE ( 'NONE', *, *, #342, .F. ) ;
#279 = COORDINATED_UNIVERSAL_TIME_OFFSET ( 1, 0, .AHEAD. ) ;
#280 = CC_DESIGN_DATE_AND_TIME_ASSIGNMENT ( #70, #65, ( #295 ) ) ;
#281 = PLANE ( 'NONE',  #80 ) ;
#282 = FACE_OUTER_BOUND ( 'NONE', #249, .T. ) ;
#283 = CARTESIAN_POINT ( 'NONE',  ( 0.0000000000000000000, 0.0000000000000000000, 0.0000000000000000000 ) ) ;
#284 = FACE_OUTER_BOUND ( 'NONE', #229, .T. ) ;
#285 = APPROVAL_PERSON_ORGANIZATION ( #62, #161, #256 ) ;
#286 = LOCAL_TIME ( 11, 22, 59.00000000000000000, #207 ) ;
#287 = DATE_AND_TIME ( #183, #59 ) ;
#288 = DIRECTION ( 'NONE',  ( -3.491481338843133355E-15, 1.224646799147353207E-16, -1.000000000000000000 ) ) ;
#289 = DIRECTION ( 'NONE',  ( 3.491481338843133355E-15, -1.224646799147353207E-16, 1.000000000000000000 ) ) ;
#290 = MANIFOLD_SOLID_BREP ( 'Corps-Déplacer/Copier1[1]', #218 ) ;
#291 = AXIS2_PLACEMENT_3D ( 'NONE', #309, #69, #44 ) ;
#292 = AXIS2_PLACEMENT_3D ( 'NONE', #220, #321, #324 ) ;
#293 = CC_DESIGN_SECURITY_CLASSIFICATION ( #31, ( #157 ) ) ;
#294 = DIRECTION ( 'NONE',  ( 4.275831445896958607E-31, 1.000000000000000000, 1.224646799147353207E-16 ) ) ;
#295 = PRODUCT_DEFINITION ( 'UNKNOWN', '', #157, #215 ) ;
#296 = CARTESIAN_POINT ( 'NONE',  ( 0.0000000000000000000, 0.0000000000000000000, 0.0000000000000000000 ) ) ;
#297 = EDGE_LOOP ( 'NONE', ( #63 ) ) ;
#298 = APPLICATION_PROTOCOL_DEFINITION ( 'international standard', 'config_control_design', 1994, #180 ) ;
#299 = EDGE_LOOP ( 'NONE', ( #120 ) ) ;
#300 = DIRECTION ( 'NONE',  ( 1.000000000000000000, 0.0000000000000000000, 0.0000000000000000000 ) ) ;
#301 = EDGE_LOOP ( 'NONE', ( #241 ) ) ;
#302 = ADVANCED_FACE ( 'NONE', ( #30, #205 ), #156, .T. ) ;
#303 = AXIS2_PLACEMENT_3D ( 'NONE', #13, #225, #118 ) ;
#304 = CIRCLE ( 'NONE', #20, 0.2499999999999998890 ) ;
#305 = LOCAL_TIME ( 11, 22, 59.00000000000000000, #279 ) ;
#306 = MECHANICAL_CONTEXT ( 'NONE', #180, 'mechanical' ) ;
#307 = FACE_OUTER_BOUND ( 'NONE', #169, .T. ) ;
#308 = PERSON_AND_ORGANIZATION ( #179, #93 ) ;
#309 = CARTESIAN_POINT ( 'NONE',  ( 7.332110811570580046E-15, 5.543687027504552617E-15, 2.100000000000000089 ) ) ;
#310 = ADVANCED_FACE ( 'NONE', ( #196 ), #193, .F. ) ;
#311 = CARTESIAN_POINT ( 'NONE',  ( 2.137183397710480277E-32, 0.2499999999999998890, 6.121136532892404794E-18 ) ) ;
#312 = EDGE_LOOP ( 'NONE', ( #108 ) ) ;
#313 = DIRECTION ( 'NONE',  ( 0.0000000000000000000, 1.000000000000000000, 0.0000000000000000000 ) ) ;
#314 = DIRECTION ( 'NONE',  ( -3.491481338843133355E-15, 1.224646799147353207E-16, -1.000000000000000000 ) ) ;
#315 = DIRECTION ( 'NONE',  ( 0.0000000000000000000, 1.000000000000000000, 0.0000000000000000000 ) ) ;
#316 = ADVANCED_FACE ( 'NONE', ( #162, #323 ), #148, .F. ) ;
#317 = CIRCLE ( 'NONE', #257, 0.2500000000000000000 ) ;
#318 = CYLINDRICAL_SURFACE ( 'NONE', #87, 1.999999999999995337 ) ;
#319 = ADVANCED_FACE ( 'NONE', ( #85, #109 ), #58, .T. ) ;
#320 = DIRECTION ( 'NONE',  ( 3.491481338843133355E-15, -1.224646799147353207E-16, 1.000000000000000000 ) ) ;
#321 = DIRECTION ( 'NONE',  ( -3.491481338843133355E-15, 1.224646799147353207E-16, -1.000000000000000000 ) ) ;
#322 = AXIS2_PLACEMENT_3D ( 'NONE', #96, #224, #228 ) ;
#323 = FACE_OUTER_BOUND ( 'NONE', #339, .T. ) ;
#324 = DIRECTION ( 'NONE',  ( 4.275831445896958607E-31, 1.000000000000000000, 1.224646799147353207E-16 ) ) ;
#325 = CC_DESIGN_PERSON_AND_ORGANIZATION_ASSIGNMENT ( #308, #16, ( #110 ) ) ;
#326 = CARTESIAN_POINT ( 'NONE',  ( 7.332110811570581624E-15, 0.3914353388388221999, 2.100000000000000089 ) ) ;
#327 = APPROVAL_PERSON_ORGANIZATION ( #174, #97, #145 ) ;
#328 = APPROVAL_STATUS ( 'not_yet_approved' ) ;
#329 =( LENGTH_UNIT ( ) NAMED_UNIT ( * ) SI_UNIT ( .MILLI., .METRE. ) );
#330 = CARTESIAN_POINT ( 'NONE',  ( 4.364351673553916694E-15, -1.530808498934191571E-16, 1.250000000000000000 ) ) ;
#331 = FACE_OUTER_BOUND ( 'NONE', #265, .T. ) ;
#332 =( NAMED_UNIT ( * ) SI_UNIT ( $, .STERADIAN. ) SOLID_ANGLE_UNIT ( ) );
#333 = EDGE_LOOP ( 'NONE', ( #52 ) ) ;
#334 = COORDINATED_UNIVERSAL_TIME_OFFSET ( 1, 0, .AHEAD. ) ;
#335 = EDGE_LOOP ( 'NONE', ( #198 ) ) ;
#336 = DIRECTION ( 'NONE',  ( 0.0000000000000000000, 1.000000000000000000, 0.0000000000000000000 ) ) ;
#337 = ADVANCED_FACE ( 'NONE', ( #195, #158 ), #33, .T. ) ;
#338 = CARTESIAN_POINT ( 'NONE',  ( 2.793185071074506684E-15, -9.797174393178826150E-17, 0.8000000000000000444 ) ) ;
#339 = EDGE_LOOP ( 'NONE', ( #66 ) ) ;
#340 = UNCERTAINTY_MEASURE_WITH_UNIT (LENGTH_MEASURE( 1.000000000000000082E-05 ), #329, 'distance_accuracy_value', 'NONE');
#341 = FACE_OUTER_BOUND ( 'NONE', #211, .T. ) ;
#342 = EDGE_CURVE ( 'NONE', #68, #68, #41, .T. ) ;
#343 = DIRECTION ( 'NONE',  ( -3.491481338843133355E-15, 1.224646799147353207E-16, -1.000000000000000000 ) ) ;
ENDSEC;
END-ISO-10303-21;
