ISO-10303-21;
HEADER;
FILE_DESCRIPTION (( 'STEP AP203' ),
    '1' );
FILE_NAME ('381945.step',
    '2022-01-11T10:22:58',
    ( '' ),
    ( '' ),
    'SwSTEP 2.0',
    'SolidWorks 2019',
    '' );
FILE_SCHEMA (( 'CONFIG_CONTROL_DESIGN' ));
ENDSEC;

DATA;
#1 = DIRECTION ( 'NONE',  ( 0.0000000000000000000, 1.000000000000000000, 0.0000000000000000000 ) ) ;
#2 = EDGE_CURVE ( 'NONE', #259, #259, #84, .T. ) ;
#3 = PRODUCT ( '381945', '381945', '', ( #330 ) ) ;
#4 = CIRCLE ( 'NONE', #134, 0.2000000000000000666 ) ;
#5 = EDGE_LOOP ( 'NONE', ( #329 ) ) ;
#6 = DIRECTION ( 'NONE',  ( 3.491481338843133355E-15, -1.224646799147353207E-16, 1.000000000000000000 ) ) ;
#7 = EDGE_CURVE ( 'NONE', #10, #10, #73, .T. ) ;
#8 = ORGANIZATION ( 'UNSPECIFIED', 'UNSPECIFIED', '' ) ;
#9 = CARTESIAN_POINT ( 'NONE',  ( 3.491481338843133355E-15, -1.224646799147353207E-16, 1.000000000000000000 ) ) ;
#10 = VERTEX_POINT ( 'NONE', #16 ) ;
#11 = ORIENTED_EDGE ( 'NONE', *, *, #303, .F. ) ;
#12 = ADVANCED_FACE ( 'NONE', ( #257 ), #306, .F. ) ;
#13 = APPLICATION_CONTEXT ( 'configuration controlled 3d designs of mechanical parts and assemblies' ) ;
#14 = VERTEX_POINT ( 'NONE', #121 ) ;
#15 = DIRECTION ( 'NONE',  ( 0.0000000000000000000, 1.000000000000000000, 0.0000000000000000000 ) ) ;
#16 = CARTESIAN_POINT ( 'NONE',  ( 4.943320916078145528E-15, 0.2437047985323860244, 1.415823381635505029 ) ) ;
#17 = DIRECTION ( 'NONE',  ( -3.491481338843133355E-15, 1.224646799147353207E-16, -1.000000000000000000 ) ) ;
#18 = CALENDAR_DATE ( 2022, 11, 1 ) ;
#19 = AXIS2_PLACEMENT_3D ( 'NONE', #280, #198, #47 ) ;
#20 = AXIS2_PLACEMENT_3D ( 'NONE', #56, #208, #239 ) ;
#21 = CARTESIAN_POINT ( 'NONE',  ( 3.281992458512545354E-14, 2.969524369670470729E-32, 9.400000000000000355 ) ) ;
#22 = CALENDAR_DATE ( 2022, 11, 1 ) ;
#23 = DIRECTION ( 'NONE',  ( -3.491481338843133355E-15, 1.224646799147353207E-16, -1.000000000000000000 ) ) ;
#24 = ADVANCED_FACE ( 'NONE', ( #171, #128 ), #51, .T. ) ;
#25 = COORDINATED_UNIVERSAL_TIME_OFFSET ( 1, 0, .AHEAD. ) ;
#26 = FACE_OUTER_BOUND ( 'NONE', #5, .T. ) ;
#27 = SHAPE_DEFINITION_REPRESENTATION ( #289, #316 ) ;
#28 = DIRECTION ( 'NONE',  ( -3.491481338843133355E-15, 1.224646799147353207E-16, -1.000000000000000000 ) ) ;
#29 = CLOSED_SHELL ( 'NONE', ( #209, #71, #102 ) ) ;
#30 = AXIS2_PLACEMENT_3D ( 'NONE', #36, #110, #204 ) ;
#31 = DATE_AND_TIME ( #222, #220 ) ;
#32 = EDGE_CURVE ( 'NONE', #138, #138, #125, .T. ) ;
#33 = DIRECTION ( 'NONE',  ( 0.0000000000000000000, 1.000000000000000000, 0.0000000000000000000 ) ) ;
#34 = CIRCLE ( 'NONE', #234, 0.2000000000000000111 ) ;
#35 = EDGE_CURVE ( 'NONE', #295, #295, #66, .T. ) ;
#36 = CARTESIAN_POINT ( 'NONE',  ( 0.0000000000000000000, 0.0000000000000000000, 0.0000000000000000000 ) ) ;
#37 = EDGE_LOOP ( 'NONE', ( #11 ) ) ;
#38 = DIRECTION ( 'NONE',  ( -3.491481338843133355E-15, 1.224646799147353207E-16, -1.000000000000000000 ) ) ;
#39 = APPROVAL_PERSON_ORGANIZATION ( #334, #242, #200 ) ;
#40 = PERSON_AND_ORGANIZATION ( #237, #8 ) ;
#41 = ADVANCED_FACE ( 'NONE', ( #142, #276 ), #148, .F. ) ;
#42 = ORIENTED_EDGE ( 'NONE', *, *, #183, .T. ) ;
#43 = DATE_AND_TIME ( #267, #197 ) ;
#44 = EDGE_LOOP ( 'NONE', ( #76 ) ) ;
#45 = ORIENTED_EDGE ( 'NONE', *, *, #7, .T. ) ;
#46 = AXIS2_PLACEMENT_3D ( 'NONE', #232, #109, #132 ) ;
#47 = DIRECTION ( 'NONE',  ( 4.275831445896958607E-31, 1.000000000000000000, 1.224646799147353207E-16 ) ) ;
#48 = DIRECTION ( 'NONE',  ( 1.000000000000000000, 0.0000000000000000000, 0.0000000000000000000 ) ) ;
#49 = DIRECTION ( 'NONE',  ( -3.491481338843133355E-15, 1.224646799147353207E-16, -1.000000000000000000 ) ) ;
#50 = MANIFOLD_SOLID_BREP ( 'Corps-Déplacer/Copier1[2]', #29 ) ;
#51 = CYLINDRICAL_SURFACE ( 'NONE', #19, 1.999999999999995337 ) ;
#52 = APPROVAL_DATE_TIME ( #57, #288 ) ;
#53 = CIRCLE ( 'NONE', #213, 1.959999999999999520 ) ;
#54 = DIRECTION ( 'NONE',  ( -3.491481338843133355E-15, 1.224646799147353207E-16, -1.000000000000000000 ) ) ;
#55 = FACE_OUTER_BOUND ( 'NONE', #169, .T. ) ;
#56 = CARTESIAN_POINT ( 'NONE',  ( 1.326762908760390423E-13, -4.653657836759941941E-15, 38.00000000000000000 ) ) ;
#57 = DATE_AND_TIME ( #281, #173 ) ;
#58 = FACE_OUTER_BOUND ( 'NONE', #299, .T. ) ;
#59 = AXIS2_PLACEMENT_3D ( 'NONE', #260, #28, #1 ) ;
#60 = APPLICATION_CONTEXT ( 'configuration controlled 3d designs of mechanical parts and assemblies' ) ;
#61 = CARTESIAN_POINT ( 'NONE',  ( 2.094888803305879619E-15, 1.499759782661856410E-33, 0.5999999999999999778 ) ) ;
#62 = ORIENTED_EDGE ( 'NONE', *, *, #297, .F. ) ;
#63 = DIRECTION ( 'NONE',  ( -3.491481338843133355E-15, 1.224646799147353207E-16, -1.000000000000000000 ) ) ;
#64 = APPROVAL_ROLE ( '' ) ;
#65 = CC_DESIGN_PERSON_AND_ORGANIZATION_ASSIGNMENT ( #72, #323, ( #3 ) ) ;
#66 = CIRCLE ( 'NONE', #254, 1.959999999999999076 ) ;
#67 = CARTESIAN_POINT ( 'NONE',  ( 0.0000000000000000000, 0.0000000000000000000, 0.0000000000000000000 ) ) ;
#68 = EDGE_LOOP ( 'NONE', ( #243 ) ) ;
#69 =( NAMED_UNIT ( * ) PLANE_ANGLE_UNIT ( ) SI_UNIT ( $, .RADIAN. ) );
#70 = DIRECTION ( 'NONE',  ( 3.491481338843133355E-15, -1.224646799147353207E-16, 1.000000000000000000 ) ) ;
#71 = ADVANCED_FACE ( 'NONE', ( #147, #335 ), #247, .T. ) ;
#72 = PERSON_AND_ORGANIZATION ( #237, #8 ) ;
#73 = CIRCLE ( 'NONE', #312, 0.2437047985323861909 ) ;
#74 =( GEOMETRIC_REPRESENTATION_CONTEXT ( 3 ) GLOBAL_UNCERTAINTY_ASSIGNED_CONTEXT ( ( #206 ) ) GLOBAL_UNIT_ASSIGNED_CONTEXT ( ( #174, #69, #300 ) ) REPRESENTATION_CONTEXT ( 'NONE', 'WORKASPACE' ) );
#75 = EDGE_LOOP ( 'NONE', ( #87 ) ) ;
#76 = ORIENTED_EDGE ( 'NONE', *, *, #2, .F. ) ;
#77 = FACE_OUTER_BOUND ( 'NONE', #37, .T. ) ;
#78 = CONICAL_SURFACE ( 'NONE', #286, 0.3891310281069611521, 0.2094395102393124819 ) ;
#79 = SECURITY_CLASSIFICATION ( '', '', #107 ) ;
#80 = DIRECTION ( 'NONE',  ( -4.275831445896958607E-31, -1.000000000000000000, -1.224646799147353207E-16 ) ) ;
#81 = PERSON_AND_ORGANIZATION ( #237, #8 ) ;
#82 = FACE_BOUND ( 'NONE', #139, .T. ) ;
#83 = DIRECTION ( 'NONE',  ( -3.491481338843133355E-15, 1.224646799147353207E-16, -1.000000000000000000 ) ) ;
#84 = CIRCLE ( 'NONE', #212, 1.999999999999993561 ) ;
#85 = AXIS2_PLACEMENT_3D ( 'NONE', #317, #282, #184 ) ;
#86 = CARTESIAN_POINT ( 'NONE',  ( 0.0000000000000000000, 0.0000000000000000000, 0.0000000000000000000 ) ) ;
#87 = ORIENTED_EDGE ( 'NONE', *, *, #185, .T. ) ;
#88 = AXIS2_PLACEMENT_3D ( 'NONE', #338, #135, #154 ) ;
#89 = PLANE ( 'NONE',  #256 ) ;
#90 = CC_DESIGN_PERSON_AND_ORGANIZATION_ASSIGNMENT ( #149, #180, ( #307 ) ) ;
#91 = DIRECTION ( 'NONE',  ( -3.491481338843133355E-15, 1.224646799147353207E-16, -1.000000000000000000 ) ) ;
#92 = ORIENTED_EDGE ( 'NONE', *, *, #2, .T. ) ;
#93 = VERTEX_POINT ( 'NONE', #226 ) ;
#94 = VERTEX_POINT ( 'NONE', #170 ) ;
#95 = ORIENTED_EDGE ( 'NONE', *, *, #179, .T. ) ;
#96 = CARTESIAN_POINT ( 'NONE',  ( 4.943320916078145528E-15, -1.733883572477902657E-16, 1.415823381635505029 ) ) ;
#97 = APPLICATION_PROTOCOL_DEFINITION ( 'international standard', 'config_control_design', 1994, #60 ) ;
#98 = CARTESIAN_POINT ( 'NONE',  ( 3.281992458512545354E-14, -1.151167991198511931E-15, 9.400000000000000355 ) ) ;
#99 = CARTESIAN_POINT ( 'NONE',  ( 2.094888803305879619E-15, 0.1999999999999999278, 0.5999999999999999778 ) ) ;
#100 = CIRCLE ( 'NONE', #113, 0.3891310281069611521 ) ;
#101 = EDGE_LOOP ( 'NONE', ( #188 ) ) ;
#102 = ADVANCED_FACE ( 'NONE', ( #77 ), #302, .T. ) ;
#103 = DATE_TIME_ROLE ( 'creation_date' ) ;
#104 = CARTESIAN_POINT ( 'NONE',  ( 3.281992458512545354E-14, -1.151167991198511931E-15, 9.400000000000000355 ) ) ;
#105 = APPROVAL_DATE_TIME ( #341, #242 ) ;
#106 = PLANE ( 'NONE',  #177 ) ;
#107 = SECURITY_CLASSIFICATION_LEVEL ( 'unclassified' ) ;
#108 = CLOSED_SHELL ( 'NONE', ( #216, #275, #146, #261, #124, #283, #309, #41, #24, #158, #12 ) ) ;
#109 = DIRECTION ( 'NONE',  ( 3.491481338843133355E-15, -1.224646799147353207E-16, 1.000000000000000000 ) ) ;
#110 = DIRECTION ( 'NONE',  ( -3.491481338843133355E-15, 1.224646799147353207E-16, -1.000000000000000000 ) ) ;
#111 = PRODUCT_RELATED_PRODUCT_CATEGORY ( 'detail', '', ( #3 ) ) ;
#112 = CYLINDRICAL_SURFACE ( 'NONE', #30, 0.2000000000000000389 ) ;
#113 = AXIS2_PLACEMENT_3D ( 'NONE', #342, #38, #33 ) ;
#114 = PRODUCT_DEFINITION ( 'UNKNOWN', '', #307, #343 ) ;
#115 = EDGE_LOOP ( 'NONE', ( #186 ) ) ;
#116 = FACE_OUTER_BOUND ( 'NONE', #292, .T. ) ;
#117 = CARTESIAN_POINT ( 'NONE',  ( 2.094888803305879619E-15, -7.347880794884117764E-17, 0.5999999999999999778 ) ) ;
#118 = CARTESIAN_POINT ( 'NONE',  ( 2.137183397710479182E-32, 0.1999999999999999278, 6.121136532892404794E-18 ) ) ;
#119 = AXIS2_PLACEMENT_3D ( 'NONE', #86, #318, #293 ) ;
#120 = CARTESIAN_POINT ( 'NONE',  ( 0.0000000000000000000, 0.0000000000000000000, 0.0000000000000000000 ) ) ;
#121 = CARTESIAN_POINT ( 'NONE',  ( 1.326762908760390423E-13, 1.599999999999991873, 38.00000000000000000 ) ) ;
#122 = CARTESIAN_POINT ( 'NONE',  ( 1.326762908760390423E-13, 1.199807826129476644E-32, 38.00000000000000000 ) ) ;
#123 = FACE_OUTER_BOUND ( 'NONE', #210, .T. ) ;
#124 = ADVANCED_FACE ( 'NONE', ( #230, #337 ), #106, .F. ) ;
#125 = CIRCLE ( 'NONE', #207, 1.999999999999997113 ) ;
#126 = CONICAL_SURFACE ( 'NONE', #20, 1.599999999999996314, 0.7853981633974433940 ) ;
#127 = DIRECTION ( 'NONE',  ( -3.491481338843133355E-15, 1.224646799147353207E-16, -1.000000000000000000 ) ) ;
#128 = FACE_OUTER_BOUND ( 'NONE', #269, .T. ) ;
#129 = DIRECTION ( 'NONE',  ( 4.339058337333290564E-31, 1.000000000000000000, 1.224646799147353207E-16 ) ) ;
#130 = CC_DESIGN_PERSON_AND_ORGANIZATION_ASSIGNMENT ( #40, #217, ( #114 ) ) ;
#131 = AXIS2_PLACEMENT_3D ( 'NONE', #21, #331, #250 ) ;
#132 = DIRECTION ( 'NONE',  ( -4.275831445896958607E-31, -1.000000000000000000, -1.224646799147353207E-16 ) ) ;
#133 = DIRECTION ( 'NONE',  ( 0.0000000000000000000, 1.000000000000000000, 0.0000000000000000000 ) ) ;
#134 = AXIS2_PLACEMENT_3D ( 'NONE', #9, #83, #182 ) ;
#135 = DIRECTION ( 'NONE',  ( -3.491481338843133355E-15, 1.224646799147353207E-16, -1.000000000000000000 ) ) ;
#136 = DIRECTION ( 'NONE',  ( 3.491481338843133355E-15, -1.224646799147353207E-16, 1.000000000000000000 ) ) ;
#137 = APPROVAL_PERSON_ORGANIZATION ( #152, #288, #310 ) ;
#138 = VERTEX_POINT ( 'NONE', #190 ) ;
#139 = EDGE_LOOP ( 'NONE', ( #215 ) ) ;
#140 = EDGE_LOOP ( 'NONE', ( #322 ) ) ;
#141 = COORDINATED_UNIVERSAL_TIME_OFFSET ( 1, 0, .AHEAD. ) ;
#142 = FACE_BOUND ( 'NONE', #218, .T. ) ;
#143 = CONICAL_SURFACE ( 'NONE', #290, 1.959999999999999520, 0.2094395102393125374 ) ;
#144 = FACE_OUTER_BOUND ( 'NONE', #327, .T. ) ;
#145 = CARTESIAN_POINT ( 'NONE',  ( 3.281992458512545354E-14, 1.959999999999997744, 9.400000000000000355 ) ) ;
#146 = ADVANCED_FACE ( 'NONE', ( #144, #195 ), #263, .F. ) ;
#147 = FACE_OUTER_BOUND ( 'NONE', #101, .T. ) ;
#148 = PLANE ( 'NONE',  #131 ) ;
#149 = PERSON_AND_ORGANIZATION ( #237, #8 ) ;
#150 = AXIS2_PLACEMENT_3D ( 'NONE', #120, #17, #225 ) ;
#151 = ORIENTED_EDGE ( 'NONE', *, *, #185, .F. ) ;
#152 = PERSON_AND_ORGANIZATION ( #237, #8 ) ;
#153 = DIRECTION ( 'NONE',  ( 0.0000000000000000000, 1.000000000000000000, 0.0000000000000000000 ) ) ;
#154 = DIRECTION ( 'NONE',  ( 0.0000000000000000000, 1.000000000000000000, 0.0000000000000000000 ) ) ;
#155 = AXIS2_PLACEMENT_3D ( 'NONE', #122, #23, #175 ) ;
#156 = CARTESIAN_POINT ( 'NONE',  ( 7.332110811570581624E-15, -2.571758278209441957E-16, 2.100000000000000089 ) ) ;
#157 = MANIFOLD_SOLID_BREP ( 'Corps-Déplacer/Copier1[1]', #108 ) ;
#158 = ADVANCED_FACE ( 'NONE', ( #123, #266 ), #126, .T. ) ;
#159 = CC_DESIGN_APPROVAL ( #242, ( #307 ) ) ;
#160 = FACE_BOUND ( 'NONE', #176, .T. ) ;
#161 = EDGE_LOOP ( 'NONE', ( #62 ) ) ;
#162 = CC_DESIGN_DATE_AND_TIME_ASSIGNMENT ( #258, #279, ( #79 ) ) ;
#163 = COORDINATED_UNIVERSAL_TIME_OFFSET ( 1, 0, .AHEAD. ) ;
#164 = AXIS2_PLACEMENT_3D ( 'NONE', #227, #181, #129 ) ;
#165 = ORIENTED_EDGE ( 'NONE', *, *, #319, .F. ) ;
#166 = DIRECTION ( 'NONE',  ( 0.0000000000000000000, 0.0000000000000000000, 1.000000000000000000 ) ) ;
#167 = EDGE_LOOP ( 'NONE', ( #273 ) ) ;
#168 = VERTEX_POINT ( 'NONE', #118 ) ;
#169 = EDGE_LOOP ( 'NONE', ( #245 ) ) ;
#170 = CARTESIAN_POINT ( 'NONE',  ( 3.491481338843133355E-15, 0.1999999999999999278, 1.000000000000000000 ) ) ;
#171 = FACE_OUTER_BOUND ( 'NONE', #44, .T. ) ;
#172 = CIRCLE ( 'NONE', #85, 0.1999999999999999278 ) ;
#173 = LOCAL_TIME ( 11, 22, 58.00000000000000000, #25 ) ;
#174 =( LENGTH_UNIT ( ) NAMED_UNIT ( * ) SI_UNIT ( .MILLI., .METRE. ) );
#175 = DIRECTION ( 'NONE',  ( 4.275831445896958607E-31, 1.000000000000000000, 1.224646799147353207E-16 ) ) ;
#176 = EDGE_LOOP ( 'NONE', ( #178 ) ) ;
#177 = AXIS2_PLACEMENT_3D ( 'NONE', #201, #70, #80 ) ;
#178 = ORIENTED_EDGE ( 'NONE', *, *, #7, .F. ) ;
#179 = EDGE_CURVE ( 'NONE', #93, #93, #313, .T. ) ;
#180 = PERSON_AND_ORGANIZATION_ROLE ( 'design_supplier' ) ;
#181 = DIRECTION ( 'NONE',  ( -3.491481338843133355E-15, 1.224646799147353207E-16, -1.000000000000000000 ) ) ;
#182 = DIRECTION ( 'NONE',  ( 0.0000000000000000000, 1.000000000000000000, 0.0000000000000000000 ) ) ;
#183 = EDGE_CURVE ( 'NONE', #168, #168, #172, .T. ) ;
#184 = DIRECTION ( 'NONE',  ( 4.275831445896958607E-31, 1.000000000000000000, 1.224646799147353207E-16 ) ) ;
#185 = EDGE_CURVE ( 'NONE', #14, #14, #339, .T. ) ;
#186 = ORIENTED_EDGE ( 'NONE', *, *, #303, .T. ) ;
#187 = PLANE ( 'NONE',  #46 ) ;
#188 = ORIENTED_EDGE ( 'NONE', *, *, #183, .F. ) ;
#189 = CARTESIAN_POINT ( 'NONE',  ( 2.770050982099167801E-14, -9.716030932093546578E-16, 7.933741335753481394 ) ) ;
#190 = CARTESIAN_POINT ( 'NONE',  ( 1.312796983405018142E-13, 1.999999999999992228, 37.59999999999999432 ) ) ;
#191 = AXIS2_PLACEMENT_3D ( 'NONE', #117, #63, #214 ) ;
#192 = ORIENTED_EDGE ( 'NONE', *, *, #35, .F. ) ;
#193 = EDGE_LOOP ( 'NONE', ( #296 ) ) ;
#194 = VERTEX_POINT ( 'NONE', #328 ) ;
#195 = FACE_OUTER_BOUND ( 'NONE', #161, .T. ) ;
#196 = DIRECTION ( 'NONE',  ( 0.0000000000000000000, 1.000000000000000000, 0.0000000000000000000 ) ) ;
#197 = LOCAL_TIME ( 11, 22, 58.00000000000000000, #163 ) ;
#198 = DIRECTION ( 'NONE',  ( -3.491481338843133355E-15, 1.224646799147353207E-16, -1.000000000000000000 ) ) ;
#199 = DIRECTION ( 'NONE',  ( -4.275831445896958607E-31, -1.000000000000000000, -1.224646799147353207E-16 ) ) ;
#200 = APPROVAL_ROLE ( '' ) ;
#201 = CARTESIAN_POINT ( 'NONE',  ( 7.332110811570580046E-15, 5.505078458564190510E-15, 2.100000000000000089 ) ) ;
#202 = DIRECTION ( 'NONE',  ( -4.275831445896958607E-31, -1.000000000000000000, -1.224646799147353207E-16 ) ) ;
#203 = PERSON_AND_ORGANIZATION ( #237, #8 ) ;
#204 = DIRECTION ( 'NONE',  ( 4.275831445896958607E-31, 1.000000000000000000, 1.224646799147353207E-16 ) ) ;
#205 = CC_DESIGN_PERSON_AND_ORGANIZATION_ASSIGNMENT ( #81, #305, ( #307 ) ) ;
#206 = UNCERTAINTY_MEASURE_WITH_UNIT (LENGTH_MEASURE( 1.000000000000000082E-05 ), #174, 'distance_accuracy_value', 'NONE');
#207 = AXIS2_PLACEMENT_3D ( 'NONE', #274, #49, #304 ) ;
#208 = DIRECTION ( 'NONE',  ( -3.491481338843133355E-15, 1.224646799147353207E-16, -1.000000000000000000 ) ) ;
#209 = ADVANCED_FACE ( 'NONE', ( #58 ), #187, .F. ) ;
#210 = EDGE_LOOP ( 'NONE', ( #294 ) ) ;
#211 = CYLINDRICAL_SURFACE ( 'NONE', #119, 1.959999999999999076 ) ;
#212 = AXIS2_PLACEMENT_3D ( 'NONE', #104, #127, #278 ) ;
#213 = AXIS2_PLACEMENT_3D ( 'NONE', #321, #91, #153 ) ;
#214 = DIRECTION ( 'NONE',  ( 0.0000000000000000000, 1.000000000000000000, 0.0000000000000000000 ) ) ;
#215 = ORIENTED_EDGE ( 'NONE', *, *, #179, .F. ) ;
#216 = ADVANCED_FACE ( 'NONE', ( #235 ), #89, .F. ) ;
#217 = PERSON_AND_ORGANIZATION_ROLE ( 'creator' ) ;
#218 = EDGE_LOOP ( 'NONE', ( #192 ) ) ;
#219 = CARTESIAN_POINT ( 'NONE',  ( 7.332110811570581624E-15, 0.3891310281069609300, 2.100000000000000089 ) ) ;
#220 = LOCAL_TIME ( 11, 22, 58.00000000000000000, #141 ) ;
#221 = ORIENTED_EDGE ( 'NONE', *, *, #35, .T. ) ;
#222 = CALENDAR_DATE ( 2022, 11, 1 ) ;
#223 = CARTESIAN_POINT ( 'NONE',  ( 2.094888803305879619E-15, 1.499759782661856410E-33, 0.5999999999999999778 ) ) ;
#224 = CC_DESIGN_PERSON_AND_ORGANIZATION_ASSIGNMENT ( #203, #336, ( #79 ) ) ;
#225 = DIRECTION ( 'NONE',  ( 4.275831445896958607E-31, 1.000000000000000000, 1.224646799147353207E-16 ) ) ;
#226 = CARTESIAN_POINT ( 'NONE',  ( 7.332110811570578468E-15, 0.7199999999999997513, 2.099999999999999645 ) ) ;
#227 = CARTESIAN_POINT ( 'NONE',  ( 3.491481338843132566E-15, 0.0000000000000000000, 0.9999999999999997780 ) ) ;
#228 = LOCAL_TIME ( 11, 22, 58.00000000000000000, #284 ) ;
#229 = EDGE_LOOP ( 'NONE', ( #92 ) ) ;
#230 = FACE_BOUND ( 'NONE', #193, .T. ) ;
#231 = APPROVAL_STATUS ( 'not_yet_approved' ) ;
#232 = CARTESIAN_POINT ( 'NONE',  ( -3.207239747041717346E-32, 1.124948269554326599E-33, -9.185899725027325669E-18 ) ) ;
#233 = COORDINATED_UNIVERSAL_TIME_OFFSET ( 1, 0, .AHEAD. ) ;
#234 = AXIS2_PLACEMENT_3D ( 'NONE', #285, #262, #133 ) ;
#235 = FACE_OUTER_BOUND ( 'NONE', #140, .T. ) ;
#236 = FACE_OUTER_BOUND ( 'NONE', #265, .T. ) ;
#237 = PERSON ( 'UNSPECIFIED', 'UNSPECIFIED', 'UNSPECIFIED', ('UNSPECIFIED'), ('UNSPECIFIED'), ('UNSPECIFIED') ) ;
#238 = CC_DESIGN_DATE_AND_TIME_ASSIGNMENT ( #31, #103, ( #114 ) ) ;
#239 = DIRECTION ( 'NONE',  ( 0.0000000000000000000, 1.000000000000000000, 0.0000000000000000000 ) ) ;
#240 = DIRECTION ( 'NONE',  ( 0.0000000000000000000, -1.000000000000000000, 0.0000000000000000000 ) ) ;
#241 = AXIS2_PLACEMENT_3D ( 'NONE', #223, #252, #199 ) ;
#242 = APPROVAL ( #231, 'UNSPECIFIED' ) ;
#243 = ORIENTED_EDGE ( 'NONE', *, *, #315, .F. ) ;
#244 = VERTEX_POINT ( 'NONE', #99 ) ;
#245 = ORIENTED_EDGE ( 'NONE', *, *, #297, .T. ) ;
#246 = VERTEX_POINT ( 'NONE', #219 ) ;
#247 = CYLINDRICAL_SURFACE ( 'NONE', #150, 0.1999999999999999833 ) ;
#248 = APPROVAL_STATUS ( 'not_yet_approved' ) ;
#249 = EDGE_CURVE ( 'NONE', #246, #246, #100, .T. ) ;
#250 = DIRECTION ( 'NONE',  ( -4.275831445896958607E-31, -1.000000000000000000, -1.224646799147353207E-16 ) ) ;
#251 = APPLICATION_PROTOCOL_DEFINITION ( 'international standard', 'config_control_design', 1994, #13 ) ;
#252 = DIRECTION ( 'NONE',  ( 3.491481338843133355E-15, -1.224646799147353207E-16, 1.000000000000000000 ) ) ;
#253 = DIRECTION ( 'NONE',  ( -3.491481338843133355E-15, 1.224646799147353207E-16, -1.000000000000000000 ) ) ;
#254 = AXIS2_PLACEMENT_3D ( 'NONE', #98, #253, #15 ) ;
#255 = APPROVAL ( #248, 'UNSPECIFIED' ) ;
#256 = AXIS2_PLACEMENT_3D ( 'NONE', #61, #291, #202 ) ;
#257 = FACE_OUTER_BOUND ( 'NONE', #324, .T. ) ;
#258 = DATE_AND_TIME ( #22, #314 ) ;
#259 = VERTEX_POINT ( 'NONE', #325 ) ;
#260 = CARTESIAN_POINT ( 'NONE',  ( 1.326762908760390423E-13, -4.653657836759941941E-15, 38.00000000000000000 ) ) ;
#261 = ADVANCED_FACE ( 'NONE', ( #160, #26 ), #78, .T. ) ;
#262 = DIRECTION ( 'NONE',  ( -3.491481338843133355E-15, 1.224646799147353207E-16, -1.000000000000000000 ) ) ;
#263 = TOROIDAL_SURFACE ( 'NONE', #164, 2.200000000000000178, 2.000000000000000000 ) ;
#264 = FACE_OUTER_BOUND ( 'NONE', #68, .T. ) ;
#265 = EDGE_LOOP ( 'NONE', ( #221 ) ) ;
#266 = FACE_BOUND ( 'NONE', #75, .T. ) ;
#267 = CALENDAR_DATE ( 2022, 11, 1 ) ;
#268 = CARTESIAN_POINT ( 'NONE',  ( 2.770050982099167801E-14, 1.959999999999998632, 7.933741335753481394 ) ) ;
#269 = EDGE_LOOP ( 'NONE', ( #320 ) ) ;
#270 = APPROVAL_DATE_TIME ( #43, #255 ) ;
#271 = VERTEX_POINT ( 'NONE', #268 ) ;
#272 = CIRCLE ( 'NONE', #191, 0.2000000000000000111 ) ;
#273 = ORIENTED_EDGE ( 'NONE', *, *, #319, .T. ) ;
#274 = CARTESIAN_POINT ( 'NONE',  ( 1.312796983405018142E-13, -4.604671964794046935E-15, 37.59999999999999432 ) ) ;
#275 = ADVANCED_FACE ( 'NONE', ( #264, #55 ), #112, .T. ) ;
#276 = FACE_OUTER_BOUND ( 'NONE', #229, .T. ) ;
#277 = APPROVAL_STATUS ( 'not_yet_approved' ) ;
#278 = DIRECTION ( 'NONE',  ( 0.0000000000000000000, 1.000000000000000000, 0.0000000000000000000 ) ) ;
#279 = DATE_TIME_ROLE ( 'classification_date' ) ;
#280 = CARTESIAN_POINT ( 'NONE',  ( 0.0000000000000000000, 0.0000000000000000000, 0.0000000000000000000 ) ) ;
#281 = CALENDAR_DATE ( 2022, 11, 1 ) ;
#282 = DIRECTION ( 'NONE',  ( -3.491481338843133355E-15, 1.224646799147353207E-16, -1.000000000000000000 ) ) ;
#283 = ADVANCED_FACE ( 'NONE', ( #82, #311 ), #143, .T. ) ;
#284 = COORDINATED_UNIVERSAL_TIME_OFFSET ( 1, 0, .AHEAD. ) ;
#285 = CARTESIAN_POINT ( 'NONE',  ( 2.094888803305879619E-15, -7.347880794884117764E-17, 0.5999999999999999778 ) ) ;
#286 = AXIS2_PLACEMENT_3D ( 'NONE', #156, #136, #308 ) ;
#287 = CC_DESIGN_APPROVAL ( #288, ( #79 ) ) ;
#288 = APPROVAL ( #277, 'UNSPECIFIED' ) ;
#289 = PRODUCT_DEFINITION_SHAPE ( 'NONE', 'NONE',  #114 ) ;
#290 = AXIS2_PLACEMENT_3D ( 'NONE', #189, #6, #240 ) ;
#291 = DIRECTION ( 'NONE',  ( 3.491481338843133355E-15, -1.224646799147353207E-16, 1.000000000000000000 ) ) ;
#292 = EDGE_LOOP ( 'NONE', ( #165 ) ) ;
#293 = DIRECTION ( 'NONE',  ( 4.275831445896958607E-31, 1.000000000000000000, 1.224646799147353207E-16 ) ) ;
#294 = ORIENTED_EDGE ( 'NONE', *, *, #32, .F. ) ;
#295 = VERTEX_POINT ( 'NONE', #145 ) ;
#296 = ORIENTED_EDGE ( 'NONE', *, *, #249, .F. ) ;
#297 = EDGE_CURVE ( 'NONE', #94, #94, #4, .T. ) ;
#298 = EDGE_LOOP ( 'NONE', ( #95 ) ) ;
#299 = EDGE_LOOP ( 'NONE', ( #42 ) ) ;
#300 =( NAMED_UNIT ( * ) SI_UNIT ( $, .STERADIAN. ) SOLID_ANGLE_UNIT ( ) );
#301 = AXIS2_PLACEMENT_3D ( 'NONE', #67, #166, #48 ) ;
#302 = PLANE ( 'NONE',  #241 ) ;
#303 = EDGE_CURVE ( 'NONE', #244, #244, #34, .T. ) ;
#304 = DIRECTION ( 'NONE',  ( 0.0000000000000000000, 1.000000000000000000, 0.0000000000000000000 ) ) ;
#305 = PERSON_AND_ORGANIZATION_ROLE ( 'creator' ) ;
#306 = PLANE ( 'NONE',  #155 ) ;
#307 = PRODUCT_DEFINITION_FORMATION_WITH_SPECIFIED_SOURCE ( 'ANY', '', #3, .NOT_KNOWN. ) ;
#308 = DIRECTION ( 'NONE',  ( 0.0000000000000000000, -1.000000000000000000, 0.0000000000000000000 ) ) ;
#309 = ADVANCED_FACE ( 'NONE', ( #116, #236 ), #211, .T. ) ;
#310 = APPROVAL_ROLE ( '' ) ;
#311 = FACE_OUTER_BOUND ( 'NONE', #167, .T. ) ;
#312 = AXIS2_PLACEMENT_3D ( 'NONE', #96, #54, #196 ) ;
#313 = CIRCLE ( 'NONE', #88, 0.7199999999999999734 ) ;
#314 = LOCAL_TIME ( 11, 22, 58.00000000000000000, #233 ) ;
#315 = EDGE_CURVE ( 'NONE', #194, #194, #272, .T. ) ;
#316 = ADVANCED_BREP_SHAPE_REPRESENTATION ( '381945', ( #157, #50, #301 ), #74 ) ;
#317 = CARTESIAN_POINT ( 'NONE',  ( -6.414479494083434692E-32, 2.249896539108653198E-33, -1.837179945005465134E-17 ) ) ;
#318 = DIRECTION ( 'NONE',  ( -3.491481338843133355E-15, 1.224646799147353207E-16, -1.000000000000000000 ) ) ;
#319 = EDGE_CURVE ( 'NONE', #271, #271, #53, .T. ) ;
#320 = ORIENTED_EDGE ( 'NONE', *, *, #32, .T. ) ;
#321 = CARTESIAN_POINT ( 'NONE',  ( 2.770050982099167801E-14, -9.716030932093546578E-16, 7.933741335753481394 ) ) ;
#322 = ORIENTED_EDGE ( 'NONE', *, *, #315, .T. ) ;
#323 = PERSON_AND_ORGANIZATION_ROLE ( 'design_owner' ) ;
#324 = EDGE_LOOP ( 'NONE', ( #151 ) ) ;
#325 = CARTESIAN_POINT ( 'NONE',  ( 3.281992458512545354E-14, 1.999999999999992228, 9.400000000000000355 ) ) ;
#326 = APPROVAL_PERSON_ORGANIZATION ( #332, #255, #64 ) ;
#327 = EDGE_LOOP ( 'NONE', ( #45 ) ) ;
#328 = CARTESIAN_POINT ( 'NONE',  ( 2.094888803305879619E-15, 0.1999999999999999278, 0.5999999999999999778 ) ) ;
#329 = ORIENTED_EDGE ( 'NONE', *, *, #249, .T. ) ;
#330 = MECHANICAL_CONTEXT ( 'NONE', #60, 'mechanical' ) ;
#331 = DIRECTION ( 'NONE',  ( 3.491481338843133355E-15, -1.224646799147353207E-16, 1.000000000000000000 ) ) ;
#332 = PERSON_AND_ORGANIZATION ( #237, #8 ) ;
#333 = CC_DESIGN_APPROVAL ( #255, ( #114 ) ) ;
#334 = PERSON_AND_ORGANIZATION ( #237, #8 ) ;
#335 = FACE_OUTER_BOUND ( 'NONE', #115, .T. ) ;
#336 = PERSON_AND_ORGANIZATION_ROLE ( 'classification_officer' ) ;
#337 = FACE_OUTER_BOUND ( 'NONE', #298, .T. ) ;
#338 = CARTESIAN_POINT ( 'NONE',  ( 7.332110811570578468E-15, -2.571758278209440971E-16, 2.099999999999999645 ) ) ;
#339 = CIRCLE ( 'NONE', #59, 1.599999999999996314 ) ;
#340 = CC_DESIGN_SECURITY_CLASSIFICATION ( #79, ( #307 ) ) ;
#341 = DATE_AND_TIME ( #18, #228 ) ;
#342 = CARTESIAN_POINT ( 'NONE',  ( 7.332110811570581624E-15, -2.571758278209441957E-16, 2.100000000000000089 ) ) ;
#343 = DESIGN_CONTEXT ( 'detailed design', #13, 'design' ) ;
ENDSEC;
END-ISO-10303-21;
