ISO-10303-21;
HEADER;
FILE_DESCRIPTION (( 'STEP AP203' ),
    '1' );
FILE_NAME ('381944.step',
    '2022-01-11T10:22:58',
    ( '' ),
    ( '' ),
    'SwSTEP 2.0',
    'SolidWorks 2019',
    '' );
FILE_SCHEMA (( 'CONFIG_CONTROL_DESIGN' ));
ENDSEC;

DATA;
#1 = ADVANCED_FACE ( 'NONE', ( #272, #220 ), #124, .F. ) ;
#2 = CYLINDRICAL_SURFACE ( 'NONE', #165, 1.999999999999995337 ) ;
#3 = DIRECTION ( 'NONE',  ( 4.275831445896958607E-31, 1.000000000000000000, 1.224646799147353207E-16 ) ) ;
#4 = ADVANCED_FACE ( 'NONE', ( #330 ), #325, .F. ) ;
#5 = PERSON_AND_ORGANIZATION ( #101, #260 ) ;
#6 = ORIENTED_EDGE ( 'NONE', *, *, #16, .T. ) ;
#7 = PERSON_AND_ORGANIZATION ( #101, #260 ) ;
#8 = DIRECTION ( 'NONE',  ( 4.355817272412799955E-31, 1.000000000000000000, 1.224646799147353207E-16 ) ) ;
#9 = AXIS2_PLACEMENT_3D ( 'NONE', #309, #203, #332 ) ;
#10 = PERSON_AND_ORGANIZATION ( #101, #260 ) ;
#11 = EDGE_LOOP ( 'NONE', ( #171 ) ) ;
#12 = EDGE_LOOP ( 'NONE', ( #37 ) ) ;
#13 = PERSON_AND_ORGANIZATION_ROLE ( 'classification_officer' ) ;
#14 = ORIENTED_EDGE ( 'NONE', *, *, #98, .T. ) ;
#15 = CIRCLE ( 'NONE', #207, 1.599999999999996314 ) ;
#16 = EDGE_CURVE ( 'NONE', #246, #246, #169, .T. ) ;
#17 = LOCAL_TIME ( 11, 22, 58.00000000000000000, #251 ) ;
#18 = CARTESIAN_POINT ( 'NONE',  ( 2.618611004132350016E-15, -9.184850993605149670E-17, 0.7500000000000000000 ) ) ;
#19 = APPLICATION_CONTEXT ( 'configuration controlled 3d designs of mechanical parts and assemblies' ) ;
#20 = DIRECTION ( 'NONE',  ( -3.491481338843133355E-15, 1.224646799147353207E-16, -1.000000000000000000 ) ) ;
#21 = FACE_OUTER_BOUND ( 'NONE', #118, .T. ) ;
#22 = CIRCLE ( 'NONE', #64, 1.999999999999993561 ) ;
#23 = DIRECTION ( 'NONE',  ( 3.491481338843133355E-15, -1.224646799147353207E-16, 1.000000000000000000 ) ) ;
#24 = CARTESIAN_POINT ( 'NONE',  ( 1.571166602479410010E-15, 0.1499999999999999389, 0.4500000000000000111 ) ) ;
#25 = DIRECTION ( 'NONE',  ( -3.491481338843133355E-15, 1.224646799147353207E-16, -1.000000000000000000 ) ) ;
#26 = AXIS2_PLACEMENT_3D ( 'NONE', #132, #156, #282 ) ;
#27 = LOCAL_TIME ( 11, 22, 58.00000000000000000, #173 ) ;
#28 =( NAMED_UNIT ( * ) PLANE_ANGLE_UNIT ( ) SI_UNIT ( $, .RADIAN. ) );
#29 = VERTEX_POINT ( 'NONE', #30 ) ;
#30 = CARTESIAN_POINT ( 'NONE',  ( 3.281992458512545354E-14, 1.999999999999992228, 9.400000000000000355 ) ) ;
#31 = CALENDAR_DATE ( 2022, 11, 1 ) ;
#32 = APPROVAL_DATE_TIME ( #34, #183 ) ;
#33 = ORIENTED_EDGE ( 'NONE', *, *, #164, .F. ) ;
#34 = DATE_AND_TIME ( #218, #187 ) ;
#35 = DIRECTION ( 'NONE',  ( -3.491481338843133355E-15, 1.224646799147353207E-16, -1.000000000000000000 ) ) ;
#36 = AXIS2_PLACEMENT_3D ( 'NONE', #319, #244, #188 ) ;
#37 = ORIENTED_EDGE ( 'NONE', *, *, #338, .F. ) ;
#38 = EDGE_LOOP ( 'NONE', ( #279 ) ) ;
#39 = EDGE_LOOP ( 'NONE', ( #196 ) ) ;
#40 = CARTESIAN_POINT ( 'NONE',  ( 0.0000000000000000000, 0.0000000000000000000, 0.0000000000000000000 ) ) ;
#41 = CARTESIAN_POINT ( 'NONE',  ( 1.571166602479410010E-15, -5.510910596163088939E-17, 0.4500000000000000111 ) ) ;
#42 = DIRECTION ( 'NONE',  ( 0.0000000000000000000, 1.000000000000000000, 0.0000000000000000000 ) ) ;
#43 = EDGE_CURVE ( 'NONE', #78, #78, #219, .T. ) ;
#44 = PLANE ( 'NONE',  #213 ) ;
#45 = AXIS2_PLACEMENT_3D ( 'NONE', #184, #97, #231 ) ;
#46 = CIRCLE ( 'NONE', #306, 0.1499999999999999389 ) ;
#47 = DIRECTION ( 'NONE',  ( 0.0000000000000000000, 1.000000000000000000, 0.0000000000000000000 ) ) ;
#48 = ADVANCED_FACE ( 'NONE', ( #65 ), #176, .F. ) ;
#49 = PRODUCT_DEFINITION_SHAPE ( 'NONE', 'NONE',  #314 ) ;
#50 = CARTESIAN_POINT ( 'NONE',  ( 1.312796983405018142E-13, 1.999999999999992228, 37.59999999999999432 ) ) ;
#51 = VERTEX_POINT ( 'NONE', #50 ) ;
#52 = EDGE_CURVE ( 'NONE', #210, #210, #336, .T. ) ;
#53 = CC_DESIGN_PERSON_AND_ORGANIZATION_ASSIGNMENT ( #10, #297, ( #142 ) ) ;
#54 = PERSON_AND_ORGANIZATION ( #101, #260 ) ;
#55 = ADVANCED_FACE ( 'NONE', ( #236, #308 ), #298, .T. ) ;
#56 = APPLICATION_PROTOCOL_DEFINITION ( 'international standard', 'config_control_design', 1994, #277 ) ;
#57 = EDGE_LOOP ( 'NONE', ( #120 ) ) ;
#58 = EDGE_CURVE ( 'NONE', #166, #166, #15, .T. ) ;
#59 = APPLICATION_PROTOCOL_DEFINITION ( 'international standard', 'config_control_design', 1994, #19 ) ;
#60 = DIRECTION ( 'NONE',  ( -3.491481338843133355E-15, 1.224646799147353207E-16, -1.000000000000000000 ) ) ;
#61 = DATE_AND_TIME ( #190, #275 ) ;
#62 = DIRECTION ( 'NONE',  ( -3.491481338843133355E-15, 1.224646799147353207E-16, -1.000000000000000000 ) ) ;
#63 = AXIS2_PLACEMENT_3D ( 'NONE', #328, #60, #200 ) ;
#64 = AXIS2_PLACEMENT_3D ( 'NONE', #161, #211, #269 ) ;
#65 = FACE_OUTER_BOUND ( 'NONE', #293, .T. ) ;
#66 = ORIENTED_EDGE ( 'NONE', *, *, #338, .T. ) ;
#67 = CYLINDRICAL_SURFACE ( 'NONE', #240, 1.959999999999999076 ) ;
#68 = DIRECTION ( 'NONE',  ( 0.0000000000000000000, 1.000000000000000000, 0.0000000000000000000 ) ) ;
#69 = ADVANCED_FACE ( 'NONE', ( #71, #128 ), #286, .F. ) ;
#70 = DIRECTION ( 'NONE',  ( -3.491481338843133355E-15, 1.224646799147353207E-16, -1.000000000000000000 ) ) ;
#71 = FACE_BOUND ( 'NONE', #12, .T. ) ;
#72 = DIRECTION ( 'NONE',  ( -4.275831445896958607E-31, -1.000000000000000000, -1.224646799147353207E-16 ) ) ;
#73 = ADVANCED_FACE ( 'NONE', ( #284, #333 ), #44, .F. ) ;
#74 = ORIENTED_EDGE ( 'NONE', *, *, #303, .T. ) ;
#75 =( LENGTH_UNIT ( ) NAMED_UNIT ( * ) SI_UNIT ( .MILLI., .METRE. ) );
#76 = ADVANCED_FACE ( 'NONE', ( #283 ), #305, .T. ) ;
#77 = VERTEX_POINT ( 'NONE', #24 ) ;
#78 = VERTEX_POINT ( 'NONE', #82 ) ;
#79 = CIRCLE ( 'NONE', #86, 1.999999999999997113 ) ;
#80 = DIRECTION ( 'NONE',  ( -3.491481338843133355E-15, 1.224646799147353207E-16, -1.000000000000000000 ) ) ;
#81 = ADVANCED_FACE ( 'NONE', ( #339, #280 ), #199, .T. ) ;
#82 = CARTESIAN_POINT ( 'NONE',  ( 7.332110811570581624E-15, 0.3922701685244643910, 2.100000000000000089 ) ) ;
#83 = EDGE_LOOP ( 'NONE', ( #257 ) ) ;
#84 = AXIS2_PLACEMENT_3D ( 'NONE', #276, #301, #159 ) ;
#85 = EDGE_CURVE ( 'NONE', #241, #241, #155, .T. ) ;
#86 = AXIS2_PLACEMENT_3D ( 'NONE', #307, #70, #42 ) ;
#87 = APPROVAL_DATE_TIME ( #329, #95 ) ;
#88 = EDGE_LOOP ( 'NONE', ( #123 ) ) ;
#89 = PERSON_AND_ORGANIZATION ( #101, #260 ) ;
#90 = CARTESIAN_POINT ( 'NONE',  ( -2.138281885567478077E-32, 7.500083238888621970E-34, -6.124282727158942497E-18 ) ) ;
#91 = DIRECTION ( 'NONE',  ( 0.0000000000000000000, 1.000000000000000000, 0.0000000000000000000 ) ) ;
#92 = AXIS2_PLACEMENT_3D ( 'NONE', #182, #134, #68 ) ;
#93 = LOCAL_TIME ( 11, 22, 58.00000000000000000, #323 ) ;
#94 = EDGE_LOOP ( 'NONE', ( #113 ) ) ;
#95 = APPROVAL ( #145, 'UNSPECIFIED' ) ;
#96 = FACE_OUTER_BOUND ( 'NONE', #217, .T. ) ;
#97 = DIRECTION ( 'NONE',  ( 3.491481338843133355E-15, -1.224646799147353207E-16, 1.000000000000000000 ) ) ;
#98 = EDGE_CURVE ( 'NONE', #160, #160, #245, .T. ) ;
#99 = AXIS2_PLACEMENT_3D ( 'NONE', #41, #157, #335 ) ;
#100 = DIRECTION ( 'NONE',  ( -3.491481338843133355E-15, 1.224646799147353207E-16, -1.000000000000000000 ) ) ;
#101 = PERSON ( 'UNSPECIFIED', 'UNSPECIFIED', 'UNSPECIFIED', ('UNSPECIFIED'), ('UNSPECIFIED'), ('UNSPECIFIED') ) ;
#102 = PLANE ( 'NONE',  #317 ) ;
#103 = CARTESIAN_POINT ( 'NONE',  ( 1.571166602479410010E-15, -5.510910596163088939E-17, 0.4500000000000000111 ) ) ;
#104 = ORIENTED_EDGE ( 'NONE', *, *, #58, .T. ) ;
#105 = CARTESIAN_POINT ( 'NONE',  ( 3.281992458512545354E-14, 1.959999999999997744, 9.400000000000000355 ) ) ;
#106 = CIRCLE ( 'NONE', #26, 0.1937047985323852028 ) ;
#107 = CC_DESIGN_SECURITY_CLASSIFICATION ( #131, ( #142 ) ) ;
#108 = DIRECTION ( 'NONE',  ( -3.491481338843133355E-15, 1.224646799147353207E-16, -1.000000000000000000 ) ) ;
#109 = VERTEX_POINT ( 'NONE', #288 ) ;
#110 = CYLINDRICAL_SURFACE ( 'NONE', #267, 0.1499999999999999667 ) ;
#111 = DIRECTION ( 'NONE',  ( 4.275831445896958607E-31, 1.000000000000000000, 1.224646799147353207E-16 ) ) ;
#112 = CALENDAR_DATE ( 2022, 11, 1 ) ;
#113 = ORIENTED_EDGE ( 'NONE', *, *, #303, .F. ) ;
#114 = ADVANCED_FACE ( 'NONE', ( #21, #96 ), #262, .T. ) ;
#115 = CARTESIAN_POINT ( 'NONE',  ( 0.0000000000000000000, 0.0000000000000000000, 0.0000000000000000000 ) ) ;
#116 = EDGE_LOOP ( 'NONE', ( #321 ) ) ;
#117 = DATE_AND_TIME ( #112, #27 ) ;
#118 = EDGE_LOOP ( 'NONE', ( #296 ) ) ;
#119 = PERSON_AND_ORGANIZATION_ROLE ( 'design_owner' ) ;
#120 = ORIENTED_EDGE ( 'NONE', *, *, #209, .F. ) ;
#121 = CC_DESIGN_PERSON_AND_ORGANIZATION_ASSIGNMENT ( #5, #147, ( #142 ) ) ;
#122 = DIRECTION ( 'NONE',  ( 0.0000000000000000000, 0.0000000000000000000, 1.000000000000000000 ) ) ;
#123 = ORIENTED_EDGE ( 'NONE', *, *, #149, .T. ) ;
#124 = TOROIDAL_SURFACE ( 'NONE', #310, 2.149999999999999911, 2.000000000000000444 ) ;
#125 = APPROVAL_PERSON_ORGANIZATION ( #327, #183, #326 ) ;
#126 = DIRECTION ( 'NONE',  ( 0.0000000000000000000, 1.000000000000000000, 0.0000000000000000000 ) ) ;
#127 = ADVANCED_FACE ( 'NONE', ( #180, #263 ), #67, .T. ) ;
#128 = FACE_OUTER_BOUND ( 'NONE', #135, .T. ) ;
#129 = PRODUCT ( '381944', '381944', '', ( #152 ) ) ;
#130 = DIRECTION ( 'NONE',  ( 4.275831445896958607E-31, 1.000000000000000000, 1.224646799147353207E-16 ) ) ;
#131 = SECURITY_CLASSIFICATION ( '', '', #227 ) ;
#132 = CARTESIAN_POINT ( 'NONE',  ( 4.070450581367362978E-15, -1.427721872691064787E-16, 1.165823381635505251 ) ) ;
#133 = PRODUCT_RELATED_PRODUCT_CATEGORY ( 'detail', '', ( #129 ) ) ;
#134 = DIRECTION ( 'NONE',  ( -3.491481338843133355E-15, 1.224646799147353207E-16, -1.000000000000000000 ) ) ;
#135 = EDGE_LOOP ( 'NONE', ( #237 ) ) ;
#136 = FACE_BOUND ( 'NONE', #192, .T. ) ;
#137 = DIRECTION ( 'NONE',  ( -3.491481338843133355E-15, 1.224646799147353207E-16, -1.000000000000000000 ) ) ;
#138 = CLOSED_SHELL ( 'NONE', ( #4, #285, #76 ) ) ;
#139 = DIRECTION ( 'NONE',  ( 4.275831445896958607E-31, 1.000000000000000000, 1.224646799147353207E-16 ) ) ;
#140 = FACE_OUTER_BOUND ( 'NONE', #38, .T. ) ;
#141 = DIRECTION ( 'NONE',  ( -3.491481338843133355E-15, 1.224646799147353207E-16, -1.000000000000000000 ) ) ;
#142 = PRODUCT_DEFINITION_FORMATION_WITH_SPECIFIED_SOURCE ( 'ANY', '', #129, .NOT_KNOWN. ) ;
#143 = CC_DESIGN_APPROVAL ( #228, ( #314 ) ) ;
#144 = APPROVAL_STATUS ( 'not_yet_approved' ) ;
#145 = APPROVAL_STATUS ( 'not_yet_approved' ) ;
#146 = EDGE_LOOP ( 'NONE', ( #224 ) ) ;
#147 = PERSON_AND_ORGANIZATION_ROLE ( 'creator' ) ;
#148 = ORIENTED_EDGE ( 'NONE', *, *, #164, .T. ) ;
#149 = EDGE_CURVE ( 'NONE', #109, #109, #106, .T. ) ;
#150 = PERSON_AND_ORGANIZATION_ROLE ( 'creator' ) ;
#151 = ORIENTED_EDGE ( 'NONE', *, *, #85, .F. ) ;
#152 = MECHANICAL_CONTEXT ( 'NONE', #277, 'mechanical' ) ;
#153 = EDGE_LOOP ( 'NONE', ( #74 ) ) ;
#154 = ORIENTED_EDGE ( 'NONE', *, *, #149, .F. ) ;
#155 = CIRCLE ( 'NONE', #92, 0.7199999999999999734 ) ;
#156 = DIRECTION ( 'NONE',  ( -3.491481338843133355E-15, 1.224646799147353207E-16, -1.000000000000000000 ) ) ;
#157 = DIRECTION ( 'NONE',  ( -3.491481338843133355E-15, 1.224646799147353207E-16, -1.000000000000000000 ) ) ;
#158 = CARTESIAN_POINT ( 'NONE',  ( 7.332110811570580046E-15, 5.557808520435584291E-15, 2.100000000000000089 ) ) ;
#159 = DIRECTION ( 'NONE',  ( -4.275831445896958607E-31, -1.000000000000000000, -1.224646799147353207E-16 ) ) ;
#160 = VERTEX_POINT ( 'NONE', #289 ) ;
#161 = CARTESIAN_POINT ( 'NONE',  ( 3.281992458512545354E-14, -1.151167991198511931E-15, 9.400000000000000355 ) ) ;
#162 = FACE_OUTER_BOUND ( 'NONE', #116, .T. ) ;
#163 = AXIS2_PLACEMENT_3D ( 'NONE', #261, #258, #230 ) ;
#164 = EDGE_CURVE ( 'NONE', #77, #77, #252, .T. ) ;
#165 = AXIS2_PLACEMENT_3D ( 'NONE', #212, #25, #111 ) ;
#166 = VERTEX_POINT ( 'NONE', #268 ) ;
#167 = VERTEX_POINT ( 'NONE', #189 ) ;
#168 = CC_DESIGN_PERSON_AND_ORGANIZATION_ASSIGNMENT ( #7, #13, ( #131 ) ) ;
#169 = CIRCLE ( 'NONE', #63, 1.959999999999999520 ) ;
#170 = DIRECTION ( 'NONE',  ( 1.000000000000000000, 0.0000000000000000000, 0.0000000000000000000 ) ) ;
#171 = ORIENTED_EDGE ( 'NONE', *, *, #209, .T. ) ;
#172 = EDGE_LOOP ( 'NONE', ( #33 ) ) ;
#173 = COORDINATED_UNIVERSAL_TIME_OFFSET ( 1, 0, .AHEAD. ) ;
#174 = DIRECTION ( 'NONE',  ( -4.275831445896958607E-31, -1.000000000000000000, -1.224646799147353207E-16 ) ) ;
#175 = PERSON_AND_ORGANIZATION ( #101, #260 ) ;
#176 = PLANE ( 'NONE',  #84 ) ;
#177 = EDGE_LOOP ( 'NONE', ( #148 ) ) ;
#178 = DIRECTION ( 'NONE',  ( -4.275831445896958607E-31, -1.000000000000000000, -1.224646799147353207E-16 ) ) ;
#179 = AXIS2_PLACEMENT_3D ( 'NONE', #264, #23, #72 ) ;
#180 = FACE_OUTER_BOUND ( 'NONE', #39, .T. ) ;
#181 = DIRECTION ( 'NONE',  ( 0.0000000000000000000, 1.000000000000000000, 0.0000000000000000000 ) ) ;
#182 = CARTESIAN_POINT ( 'NONE',  ( 7.332110811570578468E-15, -2.571758278209440971E-16, 2.099999999999999645 ) ) ;
#183 = APPROVAL ( #195, 'UNSPECIFIED' ) ;
#184 = CARTESIAN_POINT ( 'NONE',  ( 2.770050982099167801E-14, -9.716030932093546578E-16, 7.933741335753481394 ) ) ;
#185 = CARTESIAN_POINT ( 'NONE',  ( 7.332110811570578468E-15, 0.7199999999999997513, 2.099999999999999645 ) ) ;
#186 = CARTESIAN_POINT ( 'NONE',  ( 1.571166602479410010E-15, 0.1499999999999999389, 0.4500000000000000111 ) ) ;
#187 = LOCAL_TIME ( 11, 22, 58.00000000000000000, #197 ) ;
#188 = DIRECTION ( 'NONE',  ( 0.0000000000000000000, -1.000000000000000000, 0.0000000000000000000 ) ) ;
#189 = CARTESIAN_POINT ( 'NONE',  ( 2.137183397710479182E-32, 0.1499999999999999389, 6.121136532892404794E-18 ) ) ;
#190 = CALENDAR_DATE ( 2022, 11, 1 ) ;
#191 = AXIS2_PLACEMENT_3D ( 'NONE', #18, #232, #47 ) ;
#192 = EDGE_LOOP ( 'NONE', ( #154 ) ) ;
#193 = APPROVAL_ROLE ( '' ) ;
#194 = EDGE_LOOP ( 'NONE', ( #66 ) ) ;
#195 = APPROVAL_STATUS ( 'not_yet_approved' ) ;
#196 = ORIENTED_EDGE ( 'NONE', *, *, #16, .F. ) ;
#197 = COORDINATED_UNIVERSAL_TIME_OFFSET ( 1, 0, .AHEAD. ) ;
#198 = EDGE_LOOP ( 'NONE', ( #6 ) ) ;
#199 = CONICAL_SURFACE ( 'NONE', #45, 1.959999999999999520, 0.2094395102393125374 ) ;
#200 = DIRECTION ( 'NONE',  ( 0.0000000000000000000, 1.000000000000000000, 0.0000000000000000000 ) ) ;
#201 = DESIGN_CONTEXT ( 'detailed design', #19, 'design' ) ;
#202 = DIRECTION ( 'NONE',  ( -3.491481338843133355E-15, 1.224646799147353207E-16, -1.000000000000000000 ) ) ;
#203 = DIRECTION ( 'NONE',  ( 3.491481338843133355E-15, -1.224646799147353207E-16, 1.000000000000000000 ) ) ;
#204 = CARTESIAN_POINT ( 'NONE',  ( 0.0000000000000000000, 0.0000000000000000000, 0.0000000000000000000 ) ) ;
#205 = CARTESIAN_POINT ( 'NONE',  ( 1.326762908760390423E-13, -4.653657836759941941E-15, 38.00000000000000000 ) ) ;
#206 = DIRECTION ( 'NONE',  ( -3.491481338843133355E-15, 1.224646799147353207E-16, -1.000000000000000000 ) ) ;
#207 = AXIS2_PLACEMENT_3D ( 'NONE', #205, #100, #126 ) ;
#208 = APPROVAL_PERSON_ORGANIZATION ( #175, #95, #193 ) ;
#209 = EDGE_CURVE ( 'NONE', #51, #51, #79, .T. ) ;
#210 = VERTEX_POINT ( 'NONE', #186 ) ;
#211 = DIRECTION ( 'NONE',  ( -3.491481338843133355E-15, 1.224646799147353207E-16, -1.000000000000000000 ) ) ;
#212 = CARTESIAN_POINT ( 'NONE',  ( 0.0000000000000000000, 0.0000000000000000000, 0.0000000000000000000 ) ) ;
#213 = AXIS2_PLACEMENT_3D ( 'NONE', #158, #302, #178 ) ;
#214 = CC_DESIGN_APPROVAL ( #95, ( #131 ) ) ;
#215 = DIRECTION ( 'NONE',  ( 0.0000000000000000000, 1.000000000000000000, 0.0000000000000000000 ) ) ;
#216 = SHAPE_DEFINITION_REPRESENTATION ( #49, #316 ) ;
#217 = EDGE_LOOP ( 'NONE', ( #14 ) ) ;
#218 = CALENDAR_DATE ( 2022, 11, 1 ) ;
#219 = CIRCLE ( 'NONE', #233, 0.3922701685244646685 ) ;
#220 = FACE_OUTER_BOUND ( 'NONE', #253, .T. ) ;
#221 = CONICAL_SURFACE ( 'NONE', #36, 0.3922701685244646685, 0.2094395102393133423 ) ;
#222 = ADVANCED_FACE ( 'NONE', ( #235 ), #102, .F. ) ;
#223 = CALENDAR_DATE ( 2022, 11, 1 ) ;
#224 = ORIENTED_EDGE ( 'NONE', *, *, #85, .T. ) ;
#225 = APPROVAL_ROLE ( '' ) ;
#226 = ORIENTED_EDGE ( 'NONE', *, *, #52, .T. ) ;
#227 = SECURITY_CLASSIFICATION_LEVEL ( 'unclassified' ) ;
#228 = APPROVAL ( #144, 'UNSPECIFIED' ) ;
#229 = DIRECTION ( 'NONE',  ( 3.491481338843133355E-15, -1.224646799147353207E-16, 1.000000000000000000 ) ) ;
#230 = DIRECTION ( 'NONE',  ( 0.0000000000000000000, 1.000000000000000000, 0.0000000000000000000 ) ) ;
#231 = DIRECTION ( 'NONE',  ( 0.0000000000000000000, -1.000000000000000000, 0.0000000000000000000 ) ) ;
#232 = DIRECTION ( 'NONE',  ( -3.491481338843133355E-15, 1.224646799147353207E-16, -1.000000000000000000 ) ) ;
#233 = AXIS2_PLACEMENT_3D ( 'NONE', #274, #35, #91 ) ;
#234 = CC_DESIGN_APPROVAL ( #183, ( #142 ) ) ;
#235 = FACE_OUTER_BOUND ( 'NONE', #312, .T. ) ;
#236 = FACE_OUTER_BOUND ( 'NONE', #57, .T. ) ;
#237 = ORIENTED_EDGE ( 'NONE', *, *, #320, .T. ) ;
#238 = MANIFOLD_SOLID_BREP ( 'Corps-Déplacer/Copier1[2]', #138 ) ;
#239 = VERTEX_POINT ( 'NONE', #105 ) ;
#240 = AXIS2_PLACEMENT_3D ( 'NONE', #40, #206, #130 ) ;
#241 = VERTEX_POINT ( 'NONE', #185 ) ;
#242 = MANIFOLD_SOLID_BREP ( 'Corps-Déplacer/Copier1[1]', #322 ) ;
#243 = CARTESIAN_POINT ( 'NONE',  ( 2.770050982099167801E-14, 1.959999999999998632, 7.933741335753481394 ) ) ;
#244 = DIRECTION ( 'NONE',  ( 3.491481338843133355E-15, -1.224646799147353207E-16, 1.000000000000000000 ) ) ;
#245 = CIRCLE ( 'NONE', #191, 0.1500000000000000222 ) ;
#246 = VERTEX_POINT ( 'NONE', #243 ) ;
#247 = AXIS2_PLACEMENT_3D ( 'NONE', #90, #229, #174 ) ;
#248 =( GEOMETRIC_REPRESENTATION_CONTEXT ( 3 ) GLOBAL_UNCERTAINTY_ASSIGNED_CONTEXT ( ( #331 ) ) GLOBAL_UNIT_ASSIGNED_CONTEXT ( ( #75, #28, #287 ) ) REPRESENTATION_CONTEXT ( 'NONE', 'WORKASPACE' ) );
#249 = APPROVAL_DATE_TIME ( #292, #228 ) ;
#250 = EDGE_LOOP ( 'NONE', ( #151 ) ) ;
#251 = COORDINATED_UNIVERSAL_TIME_OFFSET ( 1, 0, .AHEAD. ) ;
#252 = CIRCLE ( 'NONE', #99, 0.1499999999999999944 ) ;
#253 = EDGE_LOOP ( 'NONE', ( #342 ) ) ;
#254 = APPROVAL_PERSON_ORGANIZATION ( #89, #228, #225 ) ;
#255 = EDGE_LOOP ( 'NONE', ( #104 ) ) ;
#256 = PERSON_AND_ORGANIZATION ( #101, #260 ) ;
#257 = ORIENTED_EDGE ( 'NONE', *, *, #43, .F. ) ;
#258 = DIRECTION ( 'NONE',  ( -3.491481338843133355E-15, 1.224646799147353207E-16, -1.000000000000000000 ) ) ;
#259 = AXIS2_PLACEMENT_3D ( 'NONE', #204, #202, #341 ) ;
#260 = ORGANIZATION ( 'UNSPECIFIED', 'UNSPECIFIED', '' ) ;
#261 = CARTESIAN_POINT ( 'NONE',  ( 1.326762908760390423E-13, -4.653657836759941941E-15, 38.00000000000000000 ) ) ;
#262 = CYLINDRICAL_SURFACE ( 'NONE', #259, 0.1500000000000000222 ) ;
#263 = FACE_OUTER_BOUND ( 'NONE', #194, .T. ) ;
#264 = CARTESIAN_POINT ( 'NONE',  ( 3.281992458512545354E-14, 2.969524369670470729E-32, 9.400000000000000355 ) ) ;
#265 = FACE_OUTER_BOUND ( 'NONE', #177, .T. ) ;
#266 = CARTESIAN_POINT ( 'NONE',  ( -4.276563771134956155E-32, 1.500016647777724394E-33, -1.224856545431788499E-17 ) ) ;
#267 = AXIS2_PLACEMENT_3D ( 'NONE', #343, #80, #139 ) ;
#268 = CARTESIAN_POINT ( 'NONE',  ( 1.326762908760390423E-13, 1.599999999999991873, 38.00000000000000000 ) ) ;
#269 = DIRECTION ( 'NONE',  ( 0.0000000000000000000, 1.000000000000000000, 0.0000000000000000000 ) ) ;
#270 = DIRECTION ( 'NONE',  ( 4.275831445896958607E-31, 1.000000000000000000, 1.224646799147353207E-16 ) ) ;
#271 = COORDINATED_UNIVERSAL_TIME_OFFSET ( 1, 0, .AHEAD. ) ;
#272 = FACE_OUTER_BOUND ( 'NONE', #88, .T. ) ;
#273 = DATE_TIME_ROLE ( 'creation_date' ) ;
#274 = CARTESIAN_POINT ( 'NONE',  ( 7.332110811570581624E-15, -2.571758278209441957E-16, 2.100000000000000089 ) ) ;
#275 = LOCAL_TIME ( 11, 22, 58.00000000000000000, #271 ) ;
#276 = CARTESIAN_POINT ( 'NONE',  ( 1.571166602479410010E-15, 1.124819836996392351E-33, 0.4500000000000000111 ) ) ;
#277 = APPLICATION_CONTEXT ( 'configuration controlled 3d designs of mechanical parts and assemblies' ) ;
#278 = CC_DESIGN_DATE_AND_TIME_ASSIGNMENT ( #61, #273, ( #314 ) ) ;
#279 = ORIENTED_EDGE ( 'NONE', *, *, #43, .T. ) ;
#280 = FACE_OUTER_BOUND ( 'NONE', #198, .T. ) ;
#281 = ADVANCED_FACE ( 'NONE', ( #136, #140 ), #221, .T. ) ;
#282 = DIRECTION ( 'NONE',  ( 0.0000000000000000000, 1.000000000000000000, 0.0000000000000000000 ) ) ;
#283 = FACE_OUTER_BOUND ( 'NONE', #172, .T. ) ;
#284 = FACE_BOUND ( 'NONE', #83, .T. ) ;
#285 = ADVANCED_FACE ( 'NONE', ( #318, #265 ), #110, .T. ) ;
#286 = PLANE ( 'NONE',  #179 ) ;
#287 =( NAMED_UNIT ( * ) SI_UNIT ( $, .STERADIAN. ) SOLID_ANGLE_UNIT ( ) );
#288 = CARTESIAN_POINT ( 'NONE',  ( 4.070450581367362978E-15, 0.1937047985323850641, 1.165823381635505251 ) ) ;
#289 = CARTESIAN_POINT ( 'NONE',  ( 2.618611004132350016E-15, 0.1499999999999999389, 0.7500000000000000000 ) ) ;
#290 = CARTESIAN_POINT ( 'NONE',  ( 3.281992458512545354E-14, -1.151167991198511931E-15, 9.400000000000000355 ) ) ;
#291 = AXIS2_PLACEMENT_3D ( 'NONE', #103, #20, #181 ) ;
#292 = DATE_AND_TIME ( #31, #17 ) ;
#293 = EDGE_LOOP ( 'NONE', ( #226 ) ) ;
#294 = ORIENTED_EDGE ( 'NONE', *, *, #58, .F. ) ;
#295 = DATE_TIME_ROLE ( 'classification_date' ) ;
#296 = ORIENTED_EDGE ( 'NONE', *, *, #52, .F. ) ;
#297 = PERSON_AND_ORGANIZATION_ROLE ( 'design_supplier' ) ;
#298 = CONICAL_SURFACE ( 'NONE', #163, 1.599999999999996314, 0.7853981633974433940 ) ;
#299 = CARTESIAN_POINT ( 'NONE',  ( 2.618611004132349228E-15, 0.0000000000000000000, 0.7499999999999997780 ) ) ;
#300 = CC_DESIGN_PERSON_AND_ORGANIZATION_ASSIGNMENT ( #54, #119, ( #129 ) ) ;
#301 = DIRECTION ( 'NONE',  ( 3.491481338843133355E-15, -1.224646799147353207E-16, 1.000000000000000000 ) ) ;
#302 = DIRECTION ( 'NONE',  ( 3.491481338843133355E-15, -1.224646799147353207E-16, 1.000000000000000000 ) ) ;
#303 = EDGE_CURVE ( 'NONE', #167, #167, #46, .T. ) ;
#304 = CC_DESIGN_PERSON_AND_ORGANIZATION_ASSIGNMENT ( #256, #150, ( #314 ) ) ;
#305 = PLANE ( 'NONE',  #9 ) ;
#306 = AXIS2_PLACEMENT_3D ( 'NONE', #266, #137, #270 ) ;
#307 = CARTESIAN_POINT ( 'NONE',  ( 1.312796983405018142E-13, -4.604671964794046935E-15, 37.59999999999999432 ) ) ;
#308 = FACE_BOUND ( 'NONE', #255, .T. ) ;
#309 = CARTESIAN_POINT ( 'NONE',  ( 1.571166602479410010E-15, 1.124819836996392351E-33, 0.4500000000000000111 ) ) ;
#310 = AXIS2_PLACEMENT_3D ( 'NONE', #299, #62, #8 ) ;
#311 = AXIS2_PLACEMENT_3D ( 'NONE', #115, #122, #170 ) ;
#312 = EDGE_LOOP ( 'NONE', ( #294 ) ) ;
#313 = FACE_OUTER_BOUND ( 'NONE', #11, .T. ) ;
#314 = PRODUCT_DEFINITION ( 'UNKNOWN', '', #142, #201 ) ;
#315 = CARTESIAN_POINT ( 'NONE',  ( 1.326762908760390423E-13, 1.199807826129476644E-32, 38.00000000000000000 ) ) ;
#316 = ADVANCED_BREP_SHAPE_REPRESENTATION ( '381944', ( #242, #238, #311 ), #248 ) ;
#317 = AXIS2_PLACEMENT_3D ( 'NONE', #315, #141, #3 ) ;
#318 = FACE_OUTER_BOUND ( 'NONE', #94, .T. ) ;
#319 = CARTESIAN_POINT ( 'NONE',  ( 7.332110811570581624E-15, -2.571758278209441957E-16, 2.100000000000000089 ) ) ;
#320 = EDGE_CURVE ( 'NONE', #29, #29, #22, .T. ) ;
#321 = ORIENTED_EDGE ( 'NONE', *, *, #320, .F. ) ;
#322 = CLOSED_SHELL ( 'NONE', ( #48, #114, #1, #281, #73, #81, #127, #69, #334, #55, #222 ) ) ;
#323 = COORDINATED_UNIVERSAL_TIME_OFFSET ( 1, 0, .AHEAD. ) ;
#324 = AXIS2_PLACEMENT_3D ( 'NONE', #290, #108, #215 ) ;
#325 = PLANE ( 'NONE',  #247 ) ;
#326 = APPROVAL_ROLE ( '' ) ;
#327 = PERSON_AND_ORGANIZATION ( #101, #260 ) ;
#328 = CARTESIAN_POINT ( 'NONE',  ( 2.770050982099167801E-14, -9.716030932093546578E-16, 7.933741335753481394 ) ) ;
#329 = DATE_AND_TIME ( #223, #93 ) ;
#330 = FACE_OUTER_BOUND ( 'NONE', #153, .T. ) ;
#331 = UNCERTAINTY_MEASURE_WITH_UNIT (LENGTH_MEASURE( 1.000000000000000082E-05 ), #75, 'distance_accuracy_value', 'NONE');
#332 = DIRECTION ( 'NONE',  ( -4.275831445896958607E-31, -1.000000000000000000, -1.224646799147353207E-16 ) ) ;
#333 = FACE_OUTER_BOUND ( 'NONE', #146, .T. ) ;
#334 = ADVANCED_FACE ( 'NONE', ( #162, #313 ), #2, .T. ) ;
#335 = DIRECTION ( 'NONE',  ( 0.0000000000000000000, 1.000000000000000000, 0.0000000000000000000 ) ) ;
#336 = CIRCLE ( 'NONE', #291, 0.1499999999999999944 ) ;
#337 = CIRCLE ( 'NONE', #324, 1.959999999999999076 ) ;
#338 = EDGE_CURVE ( 'NONE', #239, #239, #337, .T. ) ;
#339 = FACE_BOUND ( 'NONE', #250, .T. ) ;
#340 = CC_DESIGN_DATE_AND_TIME_ASSIGNMENT ( #117, #295, ( #131 ) ) ;
#341 = DIRECTION ( 'NONE',  ( 4.275831445896958607E-31, 1.000000000000000000, 1.224646799147352961E-16 ) ) ;
#342 = ORIENTED_EDGE ( 'NONE', *, *, #98, .F. ) ;
#343 = CARTESIAN_POINT ( 'NONE',  ( 0.0000000000000000000, 0.0000000000000000000, 0.0000000000000000000 ) ) ;
ENDSEC;
END-ISO-10303-21;
