ISO-10303-21;
HEADER;
FILE_DESCRIPTION (( 'STEP AP203' ),
    '1' );
FILE_NAME ('381940.step',
    '2021-12-13T13:56:07',
    ( '' ),
    ( '' ),
    'SwSTEP 2.0',
    'SolidWorks 2019',
    '' );
FILE_SCHEMA (( 'CONFIG_CONTROL_DESIGN' ));
ENDSEC;

DATA;
#1 = DIRECTION ( 'NONE',  ( 0.0000000000000000000, 1.000000000000000000, 0.0000000000000000000 ) ) ;
#2 = APPROVAL_STATUS ( 'not_yet_approved' ) ;
#3 = CARTESIAN_POINT ( 'NONE',  ( 3.247077645124114651E-14, -1.999999999999997780, 9.300000000000002487 ) ) ;
#4 = ORIENTED_EDGE ( 'NONE', *, *, #114, .F. ) ;
#5 = CARTESIAN_POINT ( 'NONE',  ( 3.247077645124114651E-14, 1.999999999999995337, 9.300000000000000711 ) ) ;
#6 = CONICAL_SURFACE ( 'NONE', #230, 1.999999999999997113, 0.7853981633974433940 ) ;
#7 = CC_DESIGN_APPROVAL ( #202, ( #290 ) ) ;
#8 = EDGE_LOOP ( 'NONE', ( #51 ) ) ;
#9 = ORIENTED_EDGE ( 'NONE', *, *, #68, .F. ) ;
#10 = CARTESIAN_POINT ( 'NONE',  ( 3.247077645124114651E-14, -1.960000000000001297, 9.300000000000002487 ) ) ;
#11 = AXIS2_PLACEMENT_3D ( 'NONE', #231, #234, #227 ) ;
#12 = APPROVAL_PERSON_ORGANIZATION ( #302, #273, #200 ) ;
#13 = ADVANCED_FACE ( 'NONE', ( #44 ), #108, .F. ) ;
#14 = CARTESIAN_POINT ( 'NONE',  ( 1.361677722148822166E-14, -0.7904082057734586053, 3.900000000000000799 ) ) ;
#15 = AXIS2_PLACEMENT_3D ( 'NONE', #203, #78, #222 ) ;
#16 = APPROVAL_STATUS ( 'not_yet_approved' ) ;
#17 = AXIS2_PLACEMENT_3D ( 'NONE', #206, #278, #147 ) ;
#18 = FACE_OUTER_BOUND ( 'NONE', #286, .T. ) ;
#19 = PERSON ( 'UNSPECIFIED', 'UNSPECIFIED', 'UNSPECIFIED', ('UNSPECIFIED'), ('UNSPECIFIED'), ('UNSPECIFIED') ) ;
#20 = ORIENTED_EDGE ( 'NONE', *, *, #91, .F. ) ;
#21 = MECHANICAL_CONTEXT ( 'NONE', #266, 'mechanical' ) ;
#22 = DIRECTION ( 'NONE',  ( 0.0000000000000000000, -1.000000000000000000, 0.0000000000000000000 ) ) ;
#23 = CALENDAR_DATE ( 2021, 13, 12 ) ;
#24 = EDGE_CURVE ( 'NONE', #316, #316, #39, .T. ) ;
#25 = PLANE ( 'NONE',  #53 ) ;
#26 = EDGE_LOOP ( 'NONE', ( #309 ) ) ;
#27 = CIRCLE ( 'NONE', #220, 1.999999999999997113 ) ;
#28 = FACE_OUTER_BOUND ( 'NONE', #176, .T. ) ;
#29 = FACE_OUTER_BOUND ( 'NONE', #252, .T. ) ;
#30 = COORDINATED_UNIVERSAL_TIME_OFFSET ( 1, 0, .AHEAD. ) ;
#31 = PRODUCT_DEFINITION ( 'UNKNOWN', '', #284, #294 ) ;
#32 = ORIENTED_EDGE ( 'NONE', *, *, #177, .F. ) ;
#33 = AXIS2_PLACEMENT_3D ( 'NONE', #221, #52, #118 ) ;
#34 = ORGANIZATION ( 'UNSPECIFIED', 'UNSPECIFIED', '' ) ;
#35 = CC_DESIGN_DATE_AND_TIME_ASSIGNMENT ( #64, #213, ( #31 ) ) ;
#36 = CARTESIAN_POINT ( 'NONE',  ( 2.137183397710474803E-32, 0.7499999999999995559, 6.121136532892404794E-18 ) ) ;
#37 = PRODUCT_DEFINITION_SHAPE ( 'NONE', 'NONE',  #31 ) ;
#38 = UNCERTAINTY_MEASURE_WITH_UNIT (LENGTH_MEASURE( 1.000000000000000082E-05 ), #243, 'distance_accuracy_value', 'NONE');
#39 = CIRCLE ( 'NONE', #11, 1.959999999999999964 ) ;
#40 = DIRECTION ( 'NONE',  ( -4.233198318929564307E-31, -1.000000000000000000, -1.212436186278512867E-16 ) ) ;
#41 =( GEOMETRIC_REPRESENTATION_CONTEXT ( 3 ) GLOBAL_UNCERTAINTY_ASSIGNED_CONTEXT ( ( #38 ) ) GLOBAL_UNIT_ASSIGNED_CONTEXT ( ( #243, #172, #245 ) ) REPRESENTATION_CONTEXT ( 'NONE', 'WORKASPACE' ) );
#42 = ORIENTED_EDGE ( 'NONE', *, *, #164, .T. ) ;
#43 = FACE_OUTER_BOUND ( 'NONE', #250, .T. ) ;
#44 = FACE_OUTER_BOUND ( 'NONE', #322, .T. ) ;
#45 = LOCAL_TIME ( 14, 56, 7.000000000000000000, #259 ) ;
#46 = APPLICATION_CONTEXT ( 'configuration controlled 3d designs of mechanical parts and assemblies' ) ;
#47 = FACE_OUTER_BOUND ( 'NONE', #88, .T. ) ;
#48 = ORIENTED_EDGE ( 'NONE', *, *, #215, .F. ) ;
#49 = DIRECTION ( 'NONE',  ( 3.491481338843133355E-15, -1.212436186278512867E-16, 1.000000000000000000 ) ) ;
#50 = EDGE_CURVE ( 'NONE', #291, #291, #225, .T. ) ;
#51 = ORIENTED_EDGE ( 'NONE', *, *, #177, .T. ) ;
#52 = DIRECTION ( 'NONE',  ( 3.491481338843133355E-15, -1.212436186278512867E-16, 1.000000000000000000 ) ) ;
#53 = AXIS2_PLACEMENT_3D ( 'NONE', #5, #109, #280 ) ;
#54 = AXIS2_PLACEMENT_3D ( 'NONE', #158, #263, #190 ) ;
#55 = CARTESIAN_POINT ( 'NONE',  ( 1.361677722148822166E-14, -5.192504415502135663E-16, 3.900000000000000799 ) ) ;
#56 = EDGE_LOOP ( 'NONE', ( #20 ) ) ;
#57 = DIRECTION ( 'NONE',  ( 0.0000000000000000000, -1.000000000000000000, 0.0000000000000000000 ) ) ;
#58 = PERSON_AND_ORGANIZATION_ROLE ( 'creator' ) ;
#59 = ADVANCED_FACE ( 'NONE', ( #125, #209 ), #25, .F. ) ;
#60 = CYLINDRICAL_SURFACE ( 'NONE', #54, 0.7499999999999997780 ) ;
#61 = AXIS2_PLACEMENT_3D ( 'NONE', #289, #228, #307 ) ;
#62 = FACE_BOUND ( 'NONE', #130, .T. ) ;
#63 = MANIFOLD_SOLID_BREP ( 'Corps-Déplacer/Copier4[1]', #93 ) ;
#64 = DATE_AND_TIME ( #211, #315 ) ;
#65 = DIRECTION ( 'NONE',  ( 3.491481338843133355E-15, -1.212436186278512867E-16, 1.000000000000000000 ) ) ;
#66 = CARTESIAN_POINT ( 'NONE',  ( 1.361677722148822166E-14, -1.149999999999999911, 3.900000000000000799 ) ) ;
#67 = DIRECTION ( 'NONE',  ( -3.491481338843133355E-15, 1.212436186278512867E-16, -1.000000000000000000 ) ) ;
#68 = EDGE_CURVE ( 'NONE', #183, #183, #247, .T. ) ;
#69 = CC_DESIGN_DATE_AND_TIME_ASSIGNMENT ( #285, #279, ( #290 ) ) ;
#70 = AXIS2_PLACEMENT_3D ( 'NONE', #171, #122, #180 ) ;
#71 = VERTEX_POINT ( 'NONE', #3 ) ;
#72 = ADVANCED_FACE ( 'NONE', ( #86, #29 ), #151, .T. ) ;
#73 = CARTESIAN_POINT ( 'NONE',  ( 8.030407079339206717E-15, 0.7499999999999995559, 2.299999999999999822 ) ) ;
#74 = AXIS2_PLACEMENT_3D ( 'NONE', #242, #81, #240 ) ;
#75 = AXIS2_PLACEMENT_3D ( 'NONE', #244, #117, #287 ) ;
#76 = EDGE_LOOP ( 'NONE', ( #306 ) ) ;
#77 = DIRECTION ( 'NONE',  ( 4.233198318929564307E-31, 1.000000000000000000, 1.212436186278512867E-16 ) ) ;
#78 = DIRECTION ( 'NONE',  ( 0.0000000000000000000, 0.0000000000000000000, 1.000000000000000000 ) ) ;
#79 = APPROVAL_DATE_TIME ( #269, #273 ) ;
#80 = ORIENTED_EDGE ( 'NONE', *, *, #24, .F. ) ;
#81 = DIRECTION ( 'NONE',  ( 3.491481338843133355E-15, -1.212436186278512867E-16, 1.000000000000000000 ) ) ;
#82 = PERSON_AND_ORGANIZATION ( #19, #34 ) ;
#83 = CIRCLE ( 'NONE', #254, 0.7499999999999998890 ) ;
#84 = CALENDAR_DATE ( 2021, 13, 12 ) ;
#85 = EDGE_LOOP ( 'NONE', ( #42 ) ) ;
#86 = FACE_OUTER_BOUND ( 'NONE', #275, .T. ) ;
#87 = ORIENTED_EDGE ( 'NONE', *, *, #91, .T. ) ;
#88 = EDGE_LOOP ( 'NONE', ( #104 ) ) ;
#89 = CIRCLE ( 'NONE', #267, 1.599999999999996314 ) ;
#90 = VERTEX_POINT ( 'NONE', #142 ) ;
#91 = EDGE_CURVE ( 'NONE', #161, #161, #186, .T. ) ;
#92 = FACE_OUTER_BOUND ( 'NONE', #229, .T. ) ;
#93 = CLOSED_SHELL ( 'NONE', ( #223, #160, #184, #119, #292, #59, #72, #187, #103, #13 ) ) ;
#94 = CIRCLE ( 'NONE', #74, 1.959999999999999964 ) ;
#95 = CC_DESIGN_PERSON_AND_ORGANIZATION_ASSIGNMENT ( #82, #311, ( #290 ) ) ;
#96 = CALENDAR_DATE ( 2021, 13, 12 ) ;
#97 = CARTESIAN_POINT ( 'NONE',  ( 1.312796983405018142E-13, -4.605160389308800864E-15, 37.59999999999999432 ) ) ;
#98 = CC_DESIGN_PERSON_AND_ORGANIZATION_ASSIGNMENT ( #274, #205, ( #284 ) ) ;
#99 = CC_DESIGN_SECURITY_CLASSIFICATION ( #290, ( #284 ) ) ;
#100 = EDGE_LOOP ( 'NONE', ( #181 ) ) ;
#101 = PLANE ( 'NONE',  #157 ) ;
#102 = ADVANCED_BREP_SHAPE_REPRESENTATION ( '381940', ( #63, #281, #15 ), #41 ) ;
#103 = ADVANCED_FACE ( 'NONE', ( #47 ), #288, .F. ) ;
#104 = ORIENTED_EDGE ( 'NONE', *, *, #114, .T. ) ;
#105 = CARTESIAN_POINT ( 'NONE',  ( 1.326762908760390423E-13, -4.653657836759941941E-15, 38.00000000000000000 ) ) ;
#106 = EDGE_CURVE ( 'NONE', #185, #185, #224, .T. ) ;
#107 = DIRECTION ( 'NONE',  ( 3.491481338843133355E-15, -1.212436186278512867E-16, 1.000000000000000000 ) ) ;
#108 = PLANE ( 'NONE',  #154 ) ;
#109 = DIRECTION ( 'NONE',  ( 3.491481338843133355E-15, -1.212436186278512867E-16, 1.000000000000000000 ) ) ;
#110 = AXIS2_PLACEMENT_3D ( 'NONE', #129, #49, #22 ) ;
#111 = ORIENTED_EDGE ( 'NONE', *, *, #204, .T. ) ;
#112 = CARTESIAN_POINT ( 'NONE',  ( 1.312796983405018142E-13, -2.000000000000001776, 37.59999999999999432 ) ) ;
#113 = FACE_OUTER_BOUND ( 'NONE', #195, .T. ) ;
#114 = EDGE_CURVE ( 'NONE', #262, #262, #89, .T. ) ;
#115 = APPROVAL ( #16, 'UNSPECIFIED' ) ;
#116 = CARTESIAN_POINT ( 'NONE',  ( 1.222018468595097779E-14, -0.7500000000000006661, 3.500000000000003109 ) ) ;
#117 = DIRECTION ( 'NONE',  ( 3.491481338843133355E-15, -1.212436186278512867E-16, 1.000000000000000000 ) ) ;
#118 = DIRECTION ( 'NONE',  ( 0.0000000000000000000, -1.000000000000000000, 0.0000000000000000000 ) ) ;
#119 = ADVANCED_FACE ( 'NONE', ( #28, #232 ), #276, .T. ) ;
#120 = CIRCLE ( 'NONE', #75, 1.999999999999996669 ) ;
#121 = PERSON_AND_ORGANIZATION ( #19, #34 ) ;
#122 = DIRECTION ( 'NONE',  ( 3.491481338843133355E-15, -1.212436186278512867E-16, 1.000000000000000000 ) ) ;
#123 = CARTESIAN_POINT ( 'NONE',  ( 1.361677722148822166E-14, -5.192504415502135663E-16, 3.900000000000000799 ) ) ;
#124 = EDGE_LOOP ( 'NONE', ( #4 ) ) ;
#125 = FACE_OUTER_BOUND ( 'NONE', #178, .T. ) ;
#126 = EDGE_LOOP ( 'NONE', ( #80 ) ) ;
#127 = AXIS2_PLACEMENT_3D ( 'NONE', #55, #217, #57 ) ;
#128 = LOCAL_TIME ( 14, 56, 7.000000000000000000, #145 ) ;
#129 = CARTESIAN_POINT ( 'NONE',  ( 1.326762908760390423E-13, -4.653657836759941941E-15, 38.00000000000000000 ) ) ;
#130 = EDGE_LOOP ( 'NONE', ( #87 ) ) ;
#131 = FACE_OUTER_BOUND ( 'NONE', #100, .T. ) ;
#132 = PERSON_AND_ORGANIZATION ( #19, #34 ) ;
#133 = APPROVAL_DATE_TIME ( #293, #115 ) ;
#134 = FACE_OUTER_BOUND ( 'NONE', #8, .T. ) ;
#135 = AXIS2_PLACEMENT_3D ( 'NONE', #123, #174, #277 ) ;
#136 = CC_DESIGN_APPROVAL ( #273, ( #284 ) ) ;
#137 = DIRECTION ( 'NONE',  ( 0.0000000000000000000, -1.000000000000000000, 0.0000000000000000000 ) ) ;
#138 = DIRECTION ( 'NONE',  ( 3.491481338843133355E-15, -1.224646799147353207E-16, 1.000000000000000000 ) ) ;
#139 = CYLINDRICAL_SURFACE ( 'NONE', #237, 1.959999999999999964 ) ;
#140 = DIRECTION ( 'NONE',  ( -4.289104201883794854E-31, -1.000000000000000000, -1.212436186278512867E-16 ) ) ;
#141 = ADVANCED_FACE ( 'NONE', ( #43 ), #192, .T. ) ;
#142 = CARTESIAN_POINT ( 'NONE',  ( 2.692194109054554110E-14, -1.960000000000000853, 7.710750388677675815 ) ) ;
#143 = FACE_OUTER_BOUND ( 'NONE', #26, .T. ) ;
#144 = VERTEX_POINT ( 'NONE', #73 ) ;
#145 = COORDINATED_UNIVERSAL_TIME_OFFSET ( 1, 0, .AHEAD. ) ;
#146 = EDGE_LOOP ( 'NONE', ( #153 ) ) ;
#147 = DIRECTION ( 'NONE',  ( 0.0000000000000000000, -1.000000000000000000, 0.0000000000000000000 ) ) ;
#148 = DIRECTION ( 'NONE',  ( -3.491481338843133355E-15, 1.212436186278512867E-16, -1.000000000000000000 ) ) ;
#149 = APPROVAL_STATUS ( 'not_yet_approved' ) ;
#150 = CARTESIAN_POINT ( 'NONE',  ( 1.326762908760390423E-13, -4.653657836759941941E-15, 38.00000000000000000 ) ) ;
#151 = CYLINDRICAL_SURFACE ( 'NONE', #110, 1.999999999999996669 ) ;
#152 = CALENDAR_DATE ( 2021, 13, 12 ) ;
#153 = ORIENTED_EDGE ( 'NONE', *, *, #50, .T. ) ;
#154 = AXIS2_PLACEMENT_3D ( 'NONE', #258, #248, #312 ) ;
#155 = ORIENTED_EDGE ( 'NONE', *, *, #24, .T. ) ;
#156 = APPROVAL_ROLE ( '' ) ;
#157 = AXIS2_PLACEMENT_3D ( 'NONE', #299, #193, #166 ) ;
#158 = CARTESIAN_POINT ( 'NONE',  ( 0.0000000000000000000, 0.0000000000000000000, 0.0000000000000000000 ) ) ;
#159 = SHAPE_DEFINITION_REPRESENTATION ( #37, #102 ) ;
#160 = ADVANCED_FACE ( 'NONE', ( #165, #18 ), #317, .F. ) ;
#161 = VERTEX_POINT ( 'NONE', #14 ) ;
#162 = PLANE ( 'NONE',  #207 ) ;
#163 = FACE_OUTER_BOUND ( 'NONE', #76, .T. ) ;
#164 = EDGE_CURVE ( 'NONE', #295, #295, #173, .T. ) ;
#165 = FACE_OUTER_BOUND ( 'NONE', #56, .T. ) ;
#166 = DIRECTION ( 'NONE',  ( -4.275831445896958607E-31, -1.000000000000000000, -1.224646799147353207E-16 ) ) ;
#167 = CC_DESIGN_PERSON_AND_ORGANIZATION_ASSIGNMENT ( #169, #272, ( #249 ) ) ;
#168 = EDGE_LOOP ( 'NONE', ( #111 ) ) ;
#169 = PERSON_AND_ORGANIZATION ( #19, #34 ) ;
#170 = PERSON_AND_ORGANIZATION_ROLE ( 'creator' ) ;
#171 = CARTESIAN_POINT ( 'NONE',  ( 1.222018468595097779E-14, -4.707529940990727854E-16, 3.500000000000003109 ) ) ;
#172 =( NAMED_UNIT ( * ) PLANE_ANGLE_UNIT ( ) SI_UNIT ( $, .RADIAN. ) );
#173 = CIRCLE ( 'NONE', #33, 1.149999999999999467 ) ;
#174 = DIRECTION ( 'NONE',  ( 3.491481338843133355E-15, -1.212436186278512867E-16, 1.000000000000000000 ) ) ;
#175 = APPROVAL_PERSON_ORGANIZATION ( #191, #115, #264 ) ;
#176 = EDGE_LOOP ( 'NONE', ( #208 ) ) ;
#177 = EDGE_CURVE ( 'NONE', #296, #296, #27, .T. ) ;
#178 = EDGE_LOOP ( 'NONE', ( #256 ) ) ;
#179 = CYLINDRICAL_SURFACE ( 'NONE', #297, 0.7500000000000000000 ) ;
#180 = DIRECTION ( 'NONE',  ( 0.0000000000000000000, -1.000000000000000000, 0.0000000000000000000 ) ) ;
#181 = ORIENTED_EDGE ( 'NONE', *, *, #106, .F. ) ;
#182 = DIRECTION ( 'NONE',  ( 3.491481338843133355E-15, -1.212436186278512867E-16, 1.000000000000000000 ) ) ;
#183 = VERTEX_POINT ( 'NONE', #36 ) ;
#184 = ADVANCED_FACE ( 'NONE', ( #163, #62 ), #162, .F. ) ;
#185 = VERTEX_POINT ( 'NONE', #116 ) ;
#186 = CIRCLE ( 'NONE', #135, 0.7904082057734580502 ) ;
#187 = ADVANCED_FACE ( 'NONE', ( #214, #134 ), #6, .T. ) ;
#188 = COORDINATED_UNIVERSAL_TIME_OFFSET ( 1, 0, .AHEAD. ) ;
#189 = AXIS2_PLACEMENT_3D ( 'NONE', #246, #138, #298 ) ;
#190 = DIRECTION ( 'NONE',  ( 4.275831445896958607E-31, 1.000000000000000000, 1.224646799147353207E-16 ) ) ;
#191 = PERSON_AND_ORGANIZATION ( #19, #34 ) ;
#192 = PLANE ( 'NONE',  #189 ) ;
#193 = DIRECTION ( 'NONE',  ( 3.491481338843133355E-15, -1.224646799147353207E-16, 1.000000000000000000 ) ) ;
#194 = DIRECTION ( 'NONE',  ( -3.491481338843133355E-15, 1.224646799147353207E-16, -1.000000000000000000 ) ) ;
#195 = EDGE_LOOP ( 'NONE', ( #9 ) ) ;
#196 = CARTESIAN_POINT ( 'NONE',  ( 1.222018468595096674E-14, -4.336808689942017736E-16, 3.500000000000000000 ) ) ;
#197 = ORIENTED_EDGE ( 'NONE', *, *, #313, .T. ) ;
#198 = LOCAL_TIME ( 14, 56, 7.000000000000000000, #188 ) ;
#199 = APPLICATION_PROTOCOL_DEFINITION ( 'international standard', 'config_control_design', 1994, #266 ) ;
#200 = APPROVAL_ROLE ( '' ) ;
#201 = EDGE_LOOP ( 'NONE', ( #155 ) ) ;
#202 = APPROVAL ( #149, 'UNSPECIFIED' ) ;
#203 = CARTESIAN_POINT ( 'NONE',  ( 0.0000000000000000000, 0.0000000000000000000, 0.0000000000000000000 ) ) ;
#204 = EDGE_CURVE ( 'NONE', #90, #90, #94, .T. ) ;
#205 = PERSON_AND_ORGANIZATION_ROLE ( 'design_supplier' ) ;
#206 = CARTESIAN_POINT ( 'NONE',  ( 8.030407079339217761E-15, -3.252606517456513302E-16, 2.300000000000003375 ) ) ;
#207 = AXIS2_PLACEMENT_3D ( 'NONE', #218, #65, #40 ) ;
#208 = ORIENTED_EDGE ( 'NONE', *, *, #204, .F. ) ;
#209 = FACE_BOUND ( 'NONE', #201, .T. ) ;
#210 = CARTESIAN_POINT ( 'NONE',  ( 1.326762908760390423E-13, -4.653657836759941941E-15, 38.00000000000000000 ) ) ;
#211 = CALENDAR_DATE ( 2021, 13, 12 ) ;
#212 = CC_DESIGN_PERSON_AND_ORGANIZATION_ASSIGNMENT ( #132, #58, ( #31 ) ) ;
#213 = DATE_TIME_ROLE ( 'creation_date' ) ;
#214 = FACE_BOUND ( 'NONE', #124, .T. ) ;
#215 = EDGE_CURVE ( 'NONE', #144, #144, #83, .T. ) ;
#216 = CARTESIAN_POINT ( 'NONE',  ( 8.030407079339217761E-15, -0.7500000000000002220, 2.300000000000003375 ) ) ;
#217 = DIRECTION ( 'NONE',  ( 3.491481338843133355E-15, -1.212436186278512867E-16, 1.000000000000000000 ) ) ;
#218 = CARTESIAN_POINT ( 'NONE',  ( 1.361677722148822009E-14, 0.7904082057734576061, 3.899999999999999911 ) ) ;
#219 = APPROVAL_DATE_TIME ( #233, #202 ) ;
#220 = AXIS2_PLACEMENT_3D ( 'NONE', #97, #300, #137 ) ;
#221 = CARTESIAN_POINT ( 'NONE',  ( 1.361677722148822166E-14, -5.192504415502135663E-16, 3.900000000000000799 ) ) ;
#222 = DIRECTION ( 'NONE',  ( 1.000000000000000000, 0.0000000000000000000, 0.0000000000000000000 ) ) ;
#223 = ADVANCED_FACE ( 'NONE', ( #131, #314 ), #179, .T. ) ;
#224 = CIRCLE ( 'NONE', #70, 0.7500000000000002220 ) ;
#225 = CIRCLE ( 'NONE', #17, 0.7499999999999998890 ) ;
#226 = CARTESIAN_POINT ( 'NONE',  ( 1.326762908760390423E-13, -4.653657836759941941E-15, 38.00000000000000000 ) ) ;
#227 = DIRECTION ( 'NONE',  ( 0.0000000000000000000, -1.000000000000000000, 0.0000000000000000000 ) ) ;
#228 = DIRECTION ( 'NONE',  ( -3.491481338843133355E-15, 1.224646799147353207E-16, -1.000000000000000000 ) ) ;
#229 = EDGE_LOOP ( 'NONE', ( #235 ) ) ;
#230 = AXIS2_PLACEMENT_3D ( 'NONE', #319, #67, #1 ) ;
#231 = CARTESIAN_POINT ( 'NONE',  ( 3.247077645124114651E-14, -1.173965982140610312E-15, 9.300000000000002487 ) ) ;
#232 = FACE_BOUND ( 'NONE', #85, .T. ) ;
#233 = DATE_AND_TIME ( #152, #45 ) ;
#234 = DIRECTION ( 'NONE',  ( 3.491481338843133355E-15, -1.212436186278512867E-16, 1.000000000000000000 ) ) ;
#235 = ORIENTED_EDGE ( 'NONE', *, *, #215, .T. ) ;
#236 = DIRECTION ( 'NONE',  ( 0.0000000000000000000, 1.000000000000000000, 0.0000000000000000000 ) ) ;
#237 = AXIS2_PLACEMENT_3D ( 'NONE', #105, #239, #271 ) ;
#238 = PRODUCT_RELATED_PRODUCT_CATEGORY ( 'detail', '', ( #249 ) ) ;
#239 = DIRECTION ( 'NONE',  ( 3.491481338843133355E-15, -1.212436186278512867E-16, 1.000000000000000000 ) ) ;
#240 = DIRECTION ( 'NONE',  ( 0.0000000000000000000, -1.000000000000000000, 0.0000000000000000000 ) ) ;
#241 = CLOSED_SHELL ( 'NONE', ( #301, #255, #141 ) ) ;
#242 = CARTESIAN_POINT ( 'NONE',  ( 2.692194109054554110E-14, -9.812796083609857813E-16, 7.710750388677675815 ) ) ;
#243 =( LENGTH_UNIT ( ) NAMED_UNIT ( * ) SI_UNIT ( .MILLI., .METRE. ) );
#244 = CARTESIAN_POINT ( 'NONE',  ( 3.247077645124114651E-14, -1.173965982140610312E-15, 9.300000000000002487 ) ) ;
#245 =( NAMED_UNIT ( * ) SI_UNIT ( $, .STERADIAN. ) SOLID_ANGLE_UNIT ( ) );
#246 = CARTESIAN_POINT ( 'NONE',  ( 8.030407079339206717E-15, 5.624099184981960556E-33, 2.299999999999999822 ) ) ;
#247 = CIRCLE ( 'NONE', #61, 0.7499999999999995559 ) ;
#248 = DIRECTION ( 'NONE',  ( 3.491481338843133355E-15, -1.212436186278512867E-16, 1.000000000000000000 ) ) ;
#249 = PRODUCT ( '381940', '381940', '', ( #21 ) ) ;
#250 = EDGE_LOOP ( 'NONE', ( #48 ) ) ;
#251 = PERSON_AND_ORGANIZATION ( #19, #34 ) ;
#252 = EDGE_LOOP ( 'NONE', ( #197 ) ) ;
#253 = DIRECTION ( 'NONE',  ( 0.0000000000000000000, -1.000000000000000000, 0.0000000000000000000 ) ) ;
#254 = AXIS2_PLACEMENT_3D ( 'NONE', #305, #194, #236 ) ;
#255 = ADVANCED_FACE ( 'NONE', ( #113, #92 ), #60, .T. ) ;
#256 = ORIENTED_EDGE ( 'NONE', *, *, #313, .F. ) ;
#257 = CC_DESIGN_PERSON_AND_ORGANIZATION_ASSIGNMENT ( #121, #170, ( #284 ) ) ;
#258 = CARTESIAN_POINT ( 'NONE',  ( 8.030407079339206717E-15, 0.7499999999999995559, 2.299999999999999822 ) ) ;
#259 = COORDINATED_UNIVERSAL_TIME_OFFSET ( 1, 0, .AHEAD. ) ;
#260 = COORDINATED_UNIVERSAL_TIME_OFFSET ( 1, 0, .AHEAD. ) ;
#261 = LOCAL_TIME ( 14, 56, 7.000000000000000000, #30 ) ;
#262 = VERTEX_POINT ( 'NONE', #318 ) ;
#263 = DIRECTION ( 'NONE',  ( -3.491481338843133355E-15, 1.224646799147353207E-16, -1.000000000000000000 ) ) ;
#264 = APPROVAL_ROLE ( '' ) ;
#265 = APPLICATION_PROTOCOL_DEFINITION ( 'international standard', 'config_control_design', 1994, #46 ) ;
#266 = APPLICATION_CONTEXT ( 'configuration controlled 3d designs of mechanical parts and assemblies' ) ;
#267 = AXIS2_PLACEMENT_3D ( 'NONE', #226, #107, #253 ) ;
#268 = CC_DESIGN_APPROVAL ( #115, ( #31 ) ) ;
#269 = DATE_AND_TIME ( #23, #128 ) ;
#270 = ORIENTED_EDGE ( 'NONE', *, *, #106, .T. ) ;
#271 = DIRECTION ( 'NONE',  ( 0.0000000000000000000, -1.000000000000000000, 0.0000000000000000000 ) ) ;
#272 = PERSON_AND_ORGANIZATION_ROLE ( 'design_owner' ) ;
#273 = APPROVAL ( #2, 'UNSPECIFIED' ) ;
#274 = PERSON_AND_ORGANIZATION ( #19, #34 ) ;
#275 = EDGE_LOOP ( 'NONE', ( #32 ) ) ;
#276 = CONICAL_SURFACE ( 'NONE', #127, 1.149999999999999467, 0.2094395102393127872 ) ;
#277 = DIRECTION ( 'NONE',  ( 0.0000000000000000000, -1.000000000000000000, 0.0000000000000000000 ) ) ;
#278 = DIRECTION ( 'NONE',  ( 3.491481338843133355E-15, -1.212436186278512867E-16, 1.000000000000000000 ) ) ;
#279 = DATE_TIME_ROLE ( 'classification_date' ) ;
#280 = DIRECTION ( 'NONE',  ( -4.233198318929564307E-31, -1.000000000000000000, -1.212436186278512867E-16 ) ) ;
#281 = MANIFOLD_SOLID_BREP ( 'Corps-Déplacer/Copier4[2]', #241 ) ;
#282 = DIRECTION ( 'NONE',  ( 0.0000000000000000000, -1.000000000000000000, 0.0000000000000000000 ) ) ;
#283 = AXIS2_PLACEMENT_3D ( 'NONE', #150, #148, #77 ) ;
#284 = PRODUCT_DEFINITION_FORMATION_WITH_SPECIFIED_SOURCE ( 'ANY', '', #249, .NOT_KNOWN. ) ;
#285 = DATE_AND_TIME ( #84, #261 ) ;
#286 = EDGE_LOOP ( 'NONE', ( #270 ) ) ;
#287 = DIRECTION ( 'NONE',  ( 0.0000000000000000000, -1.000000000000000000, 0.0000000000000000000 ) ) ;
#288 = PLANE ( 'NONE',  #283 ) ;
#289 = CARTESIAN_POINT ( 'NONE',  ( -2.993155244651669477E-31, 1.049857534374886559E-32, -8.572737340315904260E-17 ) ) ;
#290 = SECURITY_CLASSIFICATION ( '', '', #308 ) ;
#291 = VERTEX_POINT ( 'NONE', #216 ) ;
#292 = ADVANCED_FACE ( 'NONE', ( #304, #323 ), #139, .T. ) ;
#293 = DATE_AND_TIME ( #96, #198 ) ;
#294 = DESIGN_CONTEXT ( 'detailed design', #46, 'design' ) ;
#295 = VERTEX_POINT ( 'NONE', #66 ) ;
#296 = VERTEX_POINT ( 'NONE', #112 ) ;
#297 = AXIS2_PLACEMENT_3D ( 'NONE', #210, #182, #282 ) ;
#298 = DIRECTION ( 'NONE',  ( -4.275831445896958607E-31, -1.000000000000000000, -1.224646799147353207E-16 ) ) ;
#299 = CARTESIAN_POINT ( 'NONE',  ( -1.496577622325834738E-31, 5.249287671874432797E-33, -4.286368670157952130E-17 ) ) ;
#300 = DIRECTION ( 'NONE',  ( 3.491481338843133355E-15, -1.212436186278512867E-16, 1.000000000000000000 ) ) ;
#301 = ADVANCED_FACE ( 'NONE', ( #143 ), #101, .F. ) ;
#302 = PERSON_AND_ORGANIZATION ( #19, #34 ) ;
#303 = DIRECTION ( 'NONE',  ( 3.491481338843133355E-15, -1.212436186278512867E-16, 1.000000000000000000 ) ) ;
#304 = FACE_OUTER_BOUND ( 'NONE', #126, .T. ) ;
#305 = CARTESIAN_POINT ( 'NONE',  ( 8.030407079339206717E-15, -2.816687638038912056E-16, 2.299999999999999822 ) ) ;
#306 = ORIENTED_EDGE ( 'NONE', *, *, #164, .F. ) ;
#307 = DIRECTION ( 'NONE',  ( 4.275831445896958607E-31, 1.000000000000000000, 1.224646799147353454E-16 ) ) ;
#308 = SECURITY_CLASSIFICATION_LEVEL ( 'unclassified' ) ;
#309 = ORIENTED_EDGE ( 'NONE', *, *, #68, .T. ) ;
#310 = APPROVAL_PERSON_ORGANIZATION ( #251, #202, #156 ) ;
#311 = PERSON_AND_ORGANIZATION_ROLE ( 'classification_officer' ) ;
#312 = DIRECTION ( 'NONE',  ( -4.233198318929564307E-31, -1.000000000000000000, -1.212436186278512867E-16 ) ) ;
#313 = EDGE_CURVE ( 'NONE', #71, #71, #120, .T. ) ;
#314 = FACE_OUTER_BOUND ( 'NONE', #146, .T. ) ;
#315 = LOCAL_TIME ( 14, 56, 7.000000000000000000, #260 ) ;
#316 = VERTEX_POINT ( 'NONE', #10 ) ;
#317 = TOROIDAL_SURFACE ( 'NONE', #320, 2.750000000000000444, 2.000000000000000000 ) ;
#318 = CARTESIAN_POINT ( 'NONE',  ( 1.326762908760390423E-13, -1.600000000000000977, 38.00000000000000000 ) ) ;
#319 = CARTESIAN_POINT ( 'NONE',  ( 1.312796983405018142E-13, -4.605160389308800864E-15, 37.59999999999999432 ) ) ;
#320 = AXIS2_PLACEMENT_3D ( 'NONE', #196, #303, #140 ) ;
#321 = ORIENTED_EDGE ( 'NONE', *, *, #50, .F. ) ;
#322 = EDGE_LOOP ( 'NONE', ( #321 ) ) ;
#323 = FACE_OUTER_BOUND ( 'NONE', #168, .T. ) ;
ENDSEC;
END-ISO-10303-21;
