ISO-10303-21;
HEADER;
FILE_DESCRIPTION (( 'STEP AP203' ),
    '1' );
FILE_NAME ('381939.step',
    '2021-12-13T13:56:06',
    ( '' ),
    ( '' ),
    'SwSTEP 2.0',
    'SolidWorks 2019',
    '' );
FILE_SCHEMA (( 'CONFIG_CONTROL_DESIGN' ));
ENDSEC;

DATA;
#1 = PRODUCT_DEFINITION ( 'UNKNOWN', '', #185, #99 ) ;
#2 = CARTESIAN_POINT ( 'NONE',  ( 1.117274028429802674E-14, -3.918869757271530460E-16, 3.200000000000000178 ) ) ;
#3 = CARTESIAN_POINT ( 'NONE',  ( 7.332110811570581624E-15, 0.6999999999999996225, 2.100000000000000089 ) ) ;
#4 = AXIS2_PLACEMENT_3D ( 'NONE', #172, #201, #64 ) ;
#5 = ORIENTED_EDGE ( 'NONE', *, *, #197, .F. ) ;
#6 = CIRCLE ( 'NONE', #82, 0.6999999999999996225 ) ;
#7 = DIRECTION ( 'NONE',  ( -3.491481338843133355E-15, 1.224646799147353207E-16, -1.000000000000000000 ) ) ;
#8 = CALENDAR_DATE ( 2021, 13, 12 ) ;
#9 = CALENDAR_DATE ( 2021, 13, 12 ) ;
#10 = AXIS2_PLACEMENT_3D ( 'NONE', #102, #47, #277 ) ;
#11 = FACE_OUTER_BOUND ( 'NONE', #70, .T. ) ;
#12 = DIRECTION ( 'NONE',  ( 3.491481338843133355E-15, -1.224646799147353207E-16, 1.000000000000000000 ) ) ;
#13 = COORDINATED_UNIVERSAL_TIME_OFFSET ( 1, 0, .AHEAD. ) ;
#14 = CARTESIAN_POINT ( 'NONE',  ( 1.326762908760390423E-13, 1.199807826129476644E-32, 38.00000000000000000 ) ) ;
#15 = COORDINATED_UNIVERSAL_TIME_OFFSET ( 1, 0, .AHEAD. ) ;
#16 = FACE_OUTER_BOUND ( 'NONE', #337, .T. ) ;
#17 = ORIENTED_EDGE ( 'NONE', *, *, #18, .F. ) ;
#18 = EDGE_CURVE ( 'NONE', #312, #312, #262, .T. ) ;
#19 = FACE_BOUND ( 'NONE', #24, .T. ) ;
#20 = EDGE_LOOP ( 'NONE', ( #257 ) ) ;
#21 = FACE_BOUND ( 'NONE', #20, .T. ) ;
#22 = EDGE_LOOP ( 'NONE', ( #309 ) ) ;
#23 = AXIS2_PLACEMENT_3D ( 'NONE', #14, #95, #279 ) ;
#24 = EDGE_LOOP ( 'NONE', ( #78 ) ) ;
#25 = DIRECTION ( 'NONE',  ( 0.0000000000000000000, 1.000000000000000000, 0.0000000000000000000 ) ) ;
#26 = FACE_BOUND ( 'NONE', #96, .T. ) ;
#27 = APPROVAL_PERSON_ORGANIZATION ( #225, #228, #252 ) ;
#28 = EDGE_CURVE ( 'NONE', #71, #71, #246, .T. ) ;
#29 = CARTESIAN_POINT ( 'NONE',  ( 3.212162831735682687E-14, -1.126675055215564822E-15, 9.199999999999999289 ) ) ;
#30 = AXIS2_PLACEMENT_3D ( 'NONE', #305, #232, #342 ) ;
#31 = CARTESIAN_POINT ( 'NONE',  ( 0.0000000000000000000, 0.0000000000000000000, 0.0000000000000000000 ) ) ;
#32 = PERSON_AND_ORGANIZATION ( #182, #237 ) ;
#33 = CARTESIAN_POINT ( 'NONE',  ( 1.326762908760390833E-14, -4.653657836759942730E-16, 3.800000000000000266 ) ) ;
#34 = CARTESIAN_POINT ( 'NONE',  ( 7.332110811570581624E-15, -2.571758278209441957E-16, 2.100000000000000089 ) ) ;
#35 = APPROVAL_ROLE ( '' ) ;
#36 = AXIS2_PLACEMENT_3D ( 'NONE', #138, #165, #261 ) ;
#37 = VERTEX_POINT ( 'NONE', #153 ) ;
#38 = PLANE ( 'NONE',  #122 ) ;
#39 = FACE_OUTER_BOUND ( 'NONE', #254, .T. ) ;
#40 = MECHANICAL_CONTEXT ( 'NONE', #239, 'mechanical' ) ;
#41 = CC_DESIGN_PERSON_AND_ORGANIZATION_ASSIGNMENT ( #32, #171, ( #266 ) ) ;
#42 = ORIENTED_EDGE ( 'NONE', *, *, #142, .T. ) ;
#43 = VERTEX_POINT ( 'NONE', #253 ) ;
#44 = DIRECTION ( 'NONE',  ( 4.275831445896958607E-31, 1.000000000000000000, 1.224646799147353207E-16 ) ) ;
#45 = ORIENTED_EDGE ( 'NONE', *, *, #66, .F. ) ;
#46 = CARTESIAN_POINT ( 'NONE',  ( 2.657279295666123407E-14, 1.959999999999998632, 7.610750388677677059 ) ) ;
#47 = DIRECTION ( 'NONE',  ( -3.491481338843133355E-15, 1.224646799147353207E-16, -1.000000000000000000 ) ) ;
#48 = AXIS2_PLACEMENT_3D ( 'NONE', #339, #76, #154 ) ;
#49 = LOCAL_TIME ( 14, 56, 6.000000000000000000, #243 ) ;
#50 = ORIENTED_EDGE ( 'NONE', *, *, #18, .T. ) ;
#51 = EDGE_LOOP ( 'NONE', ( #259 ) ) ;
#52 = ORIENTED_EDGE ( 'NONE', *, *, #306, .T. ) ;
#53 = CARTESIAN_POINT ( 'NONE',  ( 1.326762908760390833E-14, 0.7828527472719534197, 3.800000000000000266 ) ) ;
#54 = AXIS2_PLACEMENT_3D ( 'NONE', #83, #267, #163 ) ;
#55 = VERTEX_POINT ( 'NONE', #3 ) ;
#56 = CARTESIAN_POINT ( 'NONE',  ( 7.332110811570581624E-15, 0.6999999999999996225, 2.100000000000000089 ) ) ;
#57 = EDGE_CURVE ( 'NONE', #43, #43, #263, .T. ) ;
#58 = DIRECTION ( 'NONE',  ( 0.0000000000000000000, 1.000000000000000000, 0.0000000000000000000 ) ) ;
#59 = APPLICATION_CONTEXT ( 'configuration controlled 3d designs of mechanical parts and assemblies' ) ;
#60 = DIRECTION ( 'NONE',  ( 0.0000000000000000000, -1.000000000000000000, 0.0000000000000000000 ) ) ;
#61 = PRODUCT_DEFINITION_SHAPE ( 'NONE', 'NONE',  #1 ) ;
#62 = CARTESIAN_POINT ( 'NONE',  ( 1.117274028429802674E-14, -4.336808689942017736E-16, 3.199999999999999734 ) ) ;
#63 = PERSON_AND_ORGANIZATION ( #182, #237 ) ;
#64 = DIRECTION ( 'NONE',  ( 1.000000000000000000, 0.0000000000000000000, 0.0000000000000000000 ) ) ;
#65 = SECURITY_CLASSIFICATION_LEVEL ( 'unclassified' ) ;
#66 = EDGE_CURVE ( 'NONE', #209, #209, #316, .T. ) ;
#67 = CIRCLE ( 'NONE', #129, 0.7828527472719538638 ) ;
#68 = CC_DESIGN_APPROVAL ( #174, ( #266 ) ) ;
#69 = DIRECTION ( 'NONE',  ( -3.491481338843133355E-15, 1.224646799147353207E-16, -1.000000000000000000 ) ) ;
#70 = EDGE_LOOP ( 'NONE', ( #52 ) ) ;
#71 = VERTEX_POINT ( 'NONE', #181 ) ;
#72 = CARTESIAN_POINT ( 'NONE',  ( 0.0000000000000000000, 0.0000000000000000000, 0.0000000000000000000 ) ) ;
#73 = EDGE_CURVE ( 'NONE', #184, #184, #248, .T. ) ;
#74 = EDGE_LOOP ( 'NONE', ( #234 ) ) ;
#75 = CARTESIAN_POINT ( 'NONE',  ( 3.212162831735682687E-14, 1.999999999999995337, 9.199999999999999289 ) ) ;
#76 = DIRECTION ( 'NONE',  ( -3.491481338843133355E-15, 1.224646799147353207E-16, -1.000000000000000000 ) ) ;
#77 = CC_DESIGN_APPROVAL ( #228, ( #185 ) ) ;
#78 = ORIENTED_EDGE ( 'NONE', *, *, #73, .T. ) ;
#79 = ORIENTED_EDGE ( 'NONE', *, *, #57, .T. ) ;
#80 =( NAMED_UNIT ( * ) PLANE_ANGLE_UNIT ( ) SI_UNIT ( $, .RADIAN. ) );
#81 = AXIS2_PLACEMENT_3D ( 'NONE', #29, #293, #58 ) ;
#82 = AXIS2_PLACEMENT_3D ( 'NONE', #115, #112, #90 ) ;
#83 = CARTESIAN_POINT ( 'NONE',  ( 2.657279295666123407E-14, -9.320481102603591775E-16, 7.610750388677677059 ) ) ;
#84 = DIRECTION ( 'NONE',  ( 3.491481338843133355E-15, -1.224646799147353207E-16, 1.000000000000000000 ) ) ;
#85 = AXIS2_PLACEMENT_3D ( 'NONE', #34, #166, #168 ) ;
#86 = FACE_OUTER_BOUND ( 'NONE', #106, .T. ) ;
#87 = PERSON_AND_ORGANIZATION_ROLE ( 'creator' ) ;
#88 = DIRECTION ( 'NONE',  ( 4.332332072286872625E-31, 1.000000000000000000, 1.224646799147353207E-16 ) ) ;
#89 = SHAPE_DEFINITION_REPRESENTATION ( #61, #223 ) ;
#90 = DIRECTION ( 'NONE',  ( 4.275831445896958607E-31, 1.000000000000000000, 1.224646799147353207E-16 ) ) ;
#91 = APPROVAL_PERSON_ORGANIZATION ( #304, #281, #220 ) ;
#92 = DATE_AND_TIME ( #93, #336 ) ;
#93 = CALENDAR_DATE ( 2021, 13, 12 ) ;
#94 = DIRECTION ( 'NONE',  ( 3.491481338843133355E-15, -1.224646799147353207E-16, 1.000000000000000000 ) ) ;
#95 = DIRECTION ( 'NONE',  ( -3.491481338843133355E-15, 1.224646799147353207E-16, -1.000000000000000000 ) ) ;
#96 = EDGE_LOOP ( 'NONE', ( #315 ) ) ;
#97 = FACE_OUTER_BOUND ( 'NONE', #124, .T. ) ;
#98 = FACE_OUTER_BOUND ( 'NONE', #130, .T. ) ;
#99 = DESIGN_CONTEXT ( 'detailed design', #59, 'design' ) ;
#100 = ORIENTED_EDGE ( 'NONE', *, *, #157, .T. ) ;
#101 = DIRECTION ( 'NONE',  ( 3.491481338843133355E-15, -1.224646799147353207E-16, 1.000000000000000000 ) ) ;
#102 = CARTESIAN_POINT ( 'NONE',  ( 0.0000000000000000000, 0.0000000000000000000, 0.0000000000000000000 ) ) ;
#103 = CIRCLE ( 'NONE', #48, 1.999999999999997113 ) ;
#104 = EDGE_LOOP ( 'NONE', ( #282 ) ) ;
#105 = EDGE_LOOP ( 'NONE', ( #151 ) ) ;
#106 = EDGE_LOOP ( 'NONE', ( #17 ) ) ;
#107 = MANIFOLD_SOLID_BREP ( 'Corps-Déplacer/Copier1[2]', #226 ) ;
#108 = CC_DESIGN_PERSON_AND_ORGANIZATION_ASSIGNMENT ( #144, #327, ( #185 ) ) ;
#109 = CARTESIAN_POINT ( 'NONE',  ( 1.262457986153303891E-14, -4.428106530602080157E-16, 3.615823381635505207 ) ) ;
#110 = DIRECTION ( 'NONE',  ( -3.491481338843133355E-15, 1.224646799147353207E-16, -1.000000000000000000 ) ) ;
#111 = AXIS2_PLACEMENT_3D ( 'NONE', #72, #183, #44 ) ;
#112 = DIRECTION ( 'NONE',  ( -3.491481338843133355E-15, 1.224646799147353207E-16, -1.000000000000000000 ) ) ;
#113 = AXIS2_PLACEMENT_3D ( 'NONE', #2, #110, #319 ) ;
#114 = FACE_OUTER_BOUND ( 'NONE', #311, .T. ) ;
#115 = CARTESIAN_POINT ( 'NONE',  ( -2.779363672356821897E-31, 9.748695452417938158E-33, -7.960413940742227780E-17 ) ) ;
#116 = ADVANCED_FACE ( 'NONE', ( #193, #241 ), #194, .T. ) ;
#117 = CONICAL_SURFACE ( 'NONE', #190, 1.599999999999996314, 0.7853981633974433940 ) ;
#118 = APPROVAL_DATE_TIME ( #245, #174 ) ;
#119 = DIRECTION ( 'NONE',  ( -4.275831445896958607E-31, -1.000000000000000000, -1.224646799147353207E-16 ) ) ;
#120 = DATE_TIME_ROLE ( 'creation_date' ) ;
#121 = CC_DESIGN_PERSON_AND_ORGANIZATION_ASSIGNMENT ( #180, #326, ( #240 ) ) ;
#122 = AXIS2_PLACEMENT_3D ( 'NONE', #249, #12, #119 ) ;
#123 = DIRECTION ( 'NONE',  ( 0.0000000000000000000, -1.000000000000000000, 0.0000000000000000000 ) ) ;
#124 = EDGE_LOOP ( 'NONE', ( #152 ) ) ;
#125 = DIRECTION ( 'NONE',  ( 4.275831445896958607E-31, 1.000000000000000000, 1.224646799147353207E-16 ) ) ;
#126 = EDGE_CURVE ( 'NONE', #287, #287, #322, .T. ) ;
#127 = EDGE_LOOP ( 'NONE', ( #233 ) ) ;
#128 = VERTEX_POINT ( 'NONE', #53 ) ;
#129 = AXIS2_PLACEMENT_3D ( 'NONE', #227, #338, #288 ) ;
#130 = EDGE_LOOP ( 'NONE', ( #186 ) ) ;
#131 = DIRECTION ( 'NONE',  ( 3.491481338843133355E-15, -1.224646799147353207E-16, 1.000000000000000000 ) ) ;
#132 = CLOSED_SHELL ( 'NONE', ( #199, #301, #302, #148, #242, #116, #216, #340, #238, #179, #341 ) ) ;
#133 = FACE_OUTER_BOUND ( 'NONE', #74, .T. ) ;
#134 = CC_DESIGN_DATE_AND_TIME_ASSIGNMENT ( #92, #298, ( #266 ) ) ;
#135 = LOCAL_TIME ( 14, 56, 6.000000000000000000, #13 ) ;
#136 = CARTESIAN_POINT ( 'NONE',  ( 1.326762908760390423E-13, -4.653657836759941941E-15, 38.00000000000000000 ) ) ;
#137 =( LENGTH_UNIT ( ) NAMED_UNIT ( * ) SI_UNIT ( .MILLI., .METRE. ) );
#138 = CARTESIAN_POINT ( 'NONE',  ( 1.326762908760390833E-14, -4.653657836759942730E-16, 3.800000000000000266 ) ) ;
#139 = CIRCLE ( 'NONE', #36, 1.149999999999999911 ) ;
#140 = APPROVAL_DATE_TIME ( #275, #281 ) ;
#141 = FACE_OUTER_BOUND ( 'NONE', #104, .T. ) ;
#142 = EDGE_CURVE ( 'NONE', #37, #37, #139, .T. ) ;
#143 = COORDINATED_UNIVERSAL_TIME_OFFSET ( 1, 0, .AHEAD. ) ;
#144 = PERSON_AND_ORGANIZATION ( #182, #237 ) ;
#145 = TOROIDAL_SURFACE ( 'NONE', #195, 2.700000000000000178, 2.000000000000000000 ) ;
#146 = CARTESIAN_POINT ( 'NONE',  ( 1.312796983405018142E-13, 1.999999999999992228, 37.59999999999999432 ) ) ;
#147 = CARTESIAN_POINT ( 'NONE',  ( 7.332110811570581624E-15, 5.249159239316498206E-33, 2.100000000000000089 ) ) ;
#148 = ADVANCED_FACE ( 'NONE', ( #26, #133 ), #271, .T. ) ;
#149 = CYLINDRICAL_SURFACE ( 'NONE', #10, 1.999999999999996669 ) ;
#150 = APPROVAL_STATUS ( 'not_yet_approved' ) ;
#151 = ORIENTED_EDGE ( 'NONE', *, *, #157, .F. ) ;
#152 = ORIENTED_EDGE ( 'NONE', *, *, #73, .F. ) ;
#153 = CARTESIAN_POINT ( 'NONE',  ( 1.326762908760390833E-14, 1.149999999999999467, 3.800000000000000266 ) ) ;
#154 = DIRECTION ( 'NONE',  ( 0.0000000000000000000, 1.000000000000000000, 0.0000000000000000000 ) ) ;
#155 = EDGE_LOOP ( 'NONE', ( #45 ) ) ;
#156 = DIRECTION ( 'NONE',  ( -4.275831445896958607E-31, -1.000000000000000000, -1.224646799147353207E-16 ) ) ;
#157 = EDGE_CURVE ( 'NONE', #229, #229, #103, .T. ) ;
#158 = EDGE_LOOP ( 'NONE', ( #313 ) ) ;
#159 = ORIENTED_EDGE ( 'NONE', *, *, #306, .F. ) ;
#160 = VERTEX_POINT ( 'NONE', #188 ) ;
#161 = AXIS2_PLACEMENT_3D ( 'NONE', #136, #215, #25 ) ;
#162 = DIRECTION ( 'NONE',  ( -3.491481338843133355E-15, 1.224646799147353207E-16, -1.000000000000000000 ) ) ;
#163 = DIRECTION ( 'NONE',  ( 0.0000000000000000000, 1.000000000000000000, 0.0000000000000000000 ) ) ;
#164 = AXIS2_PLACEMENT_3D ( 'NONE', #147, #101, #156 ) ;
#165 = DIRECTION ( 'NONE',  ( -3.491481338843133355E-15, 1.224646799147353207E-16, -1.000000000000000000 ) ) ;
#166 = DIRECTION ( 'NONE',  ( -3.491481338843133355E-15, 1.224646799147353207E-16, -1.000000000000000000 ) ) ;
#167 = DIRECTION ( 'NONE',  ( 0.0000000000000000000, 1.000000000000000000, 0.0000000000000000000 ) ) ;
#168 = DIRECTION ( 'NONE',  ( 0.0000000000000000000, 1.000000000000000000, 0.0000000000000000000 ) ) ;
#169 = DIRECTION ( 'NONE',  ( 0.0000000000000000000, 1.000000000000000000, 0.0000000000000000000 ) ) ;
#170 = CC_DESIGN_DATE_AND_TIME_ASSIGNMENT ( #175, #120, ( #1 ) ) ;
#171 = PERSON_AND_ORGANIZATION_ROLE ( 'classification_officer' ) ;
#172 = CARTESIAN_POINT ( 'NONE',  ( 0.0000000000000000000, 0.0000000000000000000, 0.0000000000000000000 ) ) ;
#173 = FACE_OUTER_BOUND ( 'NONE', #127, .T. ) ;
#174 = APPROVAL ( #247, 'UNSPECIFIED' ) ;
#175 = DATE_AND_TIME ( #8, #328 ) ;
#176 = CARTESIAN_POINT ( 'NONE',  ( 1.326762908760390423E-13, 1.599999999999991873, 38.00000000000000000 ) ) ;
#177 = CARTESIAN_POINT ( 'NONE',  ( 0.0000000000000000000, 0.0000000000000000000, 0.0000000000000000000 ) ) ;
#178 = AXIS2_PLACEMENT_3D ( 'NONE', #177, #69, #125 ) ;
#179 = ADVANCED_FACE ( 'NONE', ( #256, #19 ), #117, .T. ) ;
#180 = PERSON_AND_ORGANIZATION ( #182, #237 ) ;
#181 = CARTESIAN_POINT ( 'NONE',  ( 1.262457986153303891E-14, 0.7437047985323859134, 3.615823381635505207 ) ) ;
#182 = PERSON ( 'UNSPECIFIED', 'UNSPECIFIED', 'UNSPECIFIED', ('UNSPECIFIED'), ('UNSPECIFIED'), ('UNSPECIFIED') ) ;
#183 = DIRECTION ( 'NONE',  ( -3.491481338843133355E-15, 1.224646799147353207E-16, -1.000000000000000000 ) ) ;
#184 = VERTEX_POINT ( 'NONE', #176 ) ;
#185 = PRODUCT_DEFINITION_FORMATION_WITH_SPECIFIED_SOURCE ( 'ANY', '', #240, .NOT_KNOWN. ) ;
#186 = ORIENTED_EDGE ( 'NONE', *, *, #197, .T. ) ;
#187 = EDGE_LOOP ( 'NONE', ( #212 ) ) ;
#188 = CARTESIAN_POINT ( 'NONE',  ( 2.137183397710479182E-32, 0.6999999999999996225, 6.121136532892404794E-18 ) ) ;
#189 = EDGE_CURVE ( 'NONE', #265, #265, #296, .T. ) ;
#190 = AXIS2_PLACEMENT_3D ( 'NONE', #323, #330, #167 ) ;
#191 = APPROVAL_PERSON_ORGANIZATION ( #63, #174, #35 ) ;
#192 = CARTESIAN_POINT ( 'NONE',  ( 2.657279295666123407E-14, -9.320481102603591775E-16, 7.610750388677677059 ) ) ;
#193 = FACE_BOUND ( 'NONE', #22, .T. ) ;
#194 = CONICAL_SURFACE ( 'NONE', #255, 1.959999999999999520, 0.2094395102393125652 ) ;
#195 = AXIS2_PLACEMENT_3D ( 'NONE', #62, #273, #88 ) ;
#196 = PERSON_AND_ORGANIZATION ( #182, #237 ) ;
#197 = EDGE_CURVE ( 'NONE', #160, #160, #6, .T. ) ;
#198 = DIRECTION ( 'NONE',  ( 4.275831445896958607E-31, 1.000000000000000000, 1.224646799147353207E-16 ) ) ;
#199 = ADVANCED_FACE ( 'NONE', ( #11 ), #230, .F. ) ;
#200 = DIRECTION ( 'NONE',  ( -4.275831445896958607E-31, -1.000000000000000000, -1.224646799147353207E-16 ) ) ;
#201 = DIRECTION ( 'NONE',  ( 0.0000000000000000000, 0.0000000000000000000, 1.000000000000000000 ) ) ;
#202 = PLANE ( 'NONE',  #30 ) ;
#203 = EDGE_LOOP ( 'NONE', ( #42 ) ) ;
#204 = PLANE ( 'NONE',  #23 ) ;
#205 = EDGE_LOOP ( 'NONE', ( #286 ) ) ;
#206 = FACE_OUTER_BOUND ( 'NONE', #207, .T. ) ;
#207 = EDGE_LOOP ( 'NONE', ( #100 ) ) ;
#208 = PRODUCT_RELATED_PRODUCT_CATEGORY ( 'detail', '', ( #240 ) ) ;
#209 = VERTEX_POINT ( 'NONE', #75 ) ;
#210 = CC_DESIGN_SECURITY_CLASSIFICATION ( #266, ( #185 ) ) ;
#211 = FACE_OUTER_BOUND ( 'NONE', #203, .T. ) ;
#212 = ORIENTED_EDGE ( 'NONE', *, *, #57, .F. ) ;
#213 = AXIS2_PLACEMENT_3D ( 'NONE', #31, #7, #198 ) ;
#214 = DIRECTION ( 'NONE',  ( -3.491481338843133355E-15, 1.224646799147353207E-16, -1.000000000000000000 ) ) ;
#215 = DIRECTION ( 'NONE',  ( -3.491481338843133355E-15, 1.224646799147353207E-16, -1.000000000000000000 ) ) ;
#216 = ADVANCED_FACE ( 'NONE', ( #251, #258 ), #290, .T. ) ;
#217 =( GEOMETRIC_REPRESENTATION_CONTEXT ( 3 ) GLOBAL_UNCERTAINTY_ASSIGNED_CONTEXT ( ( #284 ) ) GLOBAL_UNIT_ASSIGNED_CONTEXT ( ( #137, #80, #236 ) ) REPRESENTATION_CONTEXT ( 'NONE', 'WORKASPACE' ) );
#218 = MANIFOLD_SOLID_BREP ( 'Corps-Déplacer/Copier1[1]', #132 ) ;
#219 = CC_DESIGN_PERSON_AND_ORGANIZATION_ASSIGNMENT ( #196, #87, ( #185 ) ) ;
#220 = APPROVAL_ROLE ( '' ) ;
#221 = LOCAL_TIME ( 14, 56, 6.000000000000000000, #15 ) ;
#222 = ADVANCED_FACE ( 'NONE', ( #98 ), #202, .F. ) ;
#223 = ADVANCED_BREP_SHAPE_REPRESENTATION ( '381939', ( #218, #107, #4 ), #217 ) ;
#224 = PLANE ( 'NONE',  #289 ) ;
#225 = PERSON_AND_ORGANIZATION ( #182, #237 ) ;
#226 = CLOSED_SHELL ( 'NONE', ( #222, #317, #260 ) ) ;
#227 = CARTESIAN_POINT ( 'NONE',  ( 1.326762908760390833E-14, -4.653657836759942730E-16, 3.800000000000000266 ) ) ;
#228 = APPROVAL ( #308, 'UNSPECIFIED' ) ;
#229 = VERTEX_POINT ( 'NONE', #146 ) ;
#230 = PLANE ( 'NONE',  #164 ) ;
#231 = DIRECTION ( 'NONE',  ( -4.275831445896958607E-31, -1.000000000000000000, -1.224646799147353207E-16 ) ) ;
#232 = DIRECTION ( 'NONE',  ( 3.491481338843133355E-15, -1.224646799147353207E-16, 1.000000000000000000 ) ) ;
#233 = ORIENTED_EDGE ( 'NONE', *, *, #66, .T. ) ;
#234 = ORIENTED_EDGE ( 'NONE', *, *, #235, .T. ) ;
#235 = EDGE_CURVE ( 'NONE', #128, #128, #67, .T. ) ;
#236 =( NAMED_UNIT ( * ) SI_UNIT ( $, .STERADIAN. ) SOLID_ANGLE_UNIT ( ) );
#237 = ORGANIZATION ( 'UNSPECIFIED', 'UNSPECIFIED', '' ) ;
#238 = ADVANCED_FACE ( 'NONE', ( #283, #206 ), #149, .T. ) ;
#239 = APPLICATION_CONTEXT ( 'configuration controlled 3d designs of mechanical parts and assemblies' ) ;
#240 = PRODUCT ( '381939', '381939', '', ( #40 ) ) ;
#241 = FACE_OUTER_BOUND ( 'NONE', #205, .T. ) ;
#242 = ADVANCED_FACE ( 'NONE', ( #21, #211 ), #38, .F. ) ;
#243 = COORDINATED_UNIVERSAL_TIME_OFFSET ( 1, 0, .AHEAD. ) ;
#244 = AXIS2_PLACEMENT_3D ( 'NONE', #297, #162, #318 ) ;
#245 = DATE_AND_TIME ( #9, #49 ) ;
#246 = CIRCLE ( 'NONE', #276, 0.7437047985323863575 ) ;
#247 = APPROVAL_STATUS ( 'not_yet_approved' ) ;
#248 = CIRCLE ( 'NONE', #161, 1.599999999999996314 ) ;
#249 = CARTESIAN_POINT ( 'NONE',  ( 1.326762908760390833E-14, 4.488627628105029259E-15, 3.800000000000000266 ) ) ;
#250 = APPLICATION_PROTOCOL_DEFINITION ( 'international standard', 'config_control_design', 1994, #59 ) ;
#251 = FACE_OUTER_BOUND ( 'NONE', #158, .T. ) ;
#252 = APPROVAL_ROLE ( '' ) ;
#253 = CARTESIAN_POINT ( 'NONE',  ( 3.212162831735682687E-14, 1.959999999999998632, 9.199999999999999289 ) ) ;
#254 = EDGE_LOOP ( 'NONE', ( #50 ) ) ;
#255 = AXIS2_PLACEMENT_3D ( 'NONE', #192, #131, #60 ) ;
#256 = FACE_OUTER_BOUND ( 'NONE', #105, .T. ) ;
#257 = ORIENTED_EDGE ( 'NONE', *, *, #235, .F. ) ;
#258 = FACE_OUTER_BOUND ( 'NONE', #292, .T. ) ;
#259 = ORIENTED_EDGE ( 'NONE', *, *, #189, .F. ) ;
#260 = ADVANCED_FACE ( 'NONE', ( #310 ), #224, .T. ) ;
#261 = DIRECTION ( 'NONE',  ( 0.0000000000000000000, 1.000000000000000000, 0.0000000000000000000 ) ) ;
#262 = CIRCLE ( 'NONE', #113, 0.7000000000000000666 ) ;
#263 = CIRCLE ( 'NONE', #81, 1.959999999999999964 ) ;
#264 = DIRECTION ( 'NONE',  ( 0.0000000000000000000, 1.000000000000000000, 0.0000000000000000000 ) ) ;
#265 = VERTEX_POINT ( 'NONE', #56 ) ;
#266 = SECURITY_CLASSIFICATION ( '', '', #65 ) ;
#267 = DIRECTION ( 'NONE',  ( -3.491481338843133355E-15, 1.224646799147353207E-16, -1.000000000000000000 ) ) ;
#268 = PLANE ( 'NONE',  #278 ) ;
#269 = DIRECTION ( 'NONE',  ( -3.491481338843133355E-15, 1.224646799147353207E-16, -1.000000000000000000 ) ) ;
#270 = CYLINDRICAL_SURFACE ( 'NONE', #213, 0.6999999999999997335 ) ;
#271 = CONICAL_SURFACE ( 'NONE', #334, 0.7828527472719538638, 0.2094395102393118158 ) ;
#272 = APPLICATION_PROTOCOL_DEFINITION ( 'international standard', 'config_control_design', 1994, #239 ) ;
#273 = DIRECTION ( 'NONE',  ( -3.491481338843133355E-15, 1.224646799147353207E-16, -1.000000000000000000 ) ) ;
#274 = COORDINATED_UNIVERSAL_TIME_OFFSET ( 1, 0, .AHEAD. ) ;
#275 = DATE_AND_TIME ( #329, #135 ) ;
#276 = AXIS2_PLACEMENT_3D ( 'NONE', #109, #214, #264 ) ;
#277 = DIRECTION ( 'NONE',  ( 4.275831445896958607E-31, 1.000000000000000000, 1.224646799147353207E-16 ) ) ;
#278 = AXIS2_PLACEMENT_3D ( 'NONE', #321, #84, #231 ) ;
#279 = DIRECTION ( 'NONE',  ( 4.275831445896958607E-31, 1.000000000000000000, 1.224646799147353207E-16 ) ) ;
#280 = CYLINDRICAL_SURFACE ( 'NONE', #111, 0.6999999999999999556 ) ;
#281 = APPROVAL ( #150, 'UNSPECIFIED' ) ;
#282 = ORIENTED_EDGE ( 'NONE', *, *, #189, .T. ) ;
#283 = FACE_OUTER_BOUND ( 'NONE', #155, .T. ) ;
#284 = UNCERTAINTY_MEASURE_WITH_UNIT (LENGTH_MEASURE( 1.000000000000000082E-05 ), #137, 'distance_accuracy_value', 'NONE');
#285 = DIRECTION ( 'NONE',  ( 3.491481338843133355E-15, -1.224646799147353207E-16, 1.000000000000000000 ) ) ;
#286 = ORIENTED_EDGE ( 'NONE', *, *, #126, .T. ) ;
#287 = VERTEX_POINT ( 'NONE', #46 ) ;
#288 = DIRECTION ( 'NONE',  ( 0.0000000000000000000, 1.000000000000000000, 0.0000000000000000000 ) ) ;
#289 = AXIS2_PLACEMENT_3D ( 'NONE', #331, #94, #200 ) ;
#290 = CYLINDRICAL_SURFACE ( 'NONE', #178, 1.959999999999999964 ) ;
#291 = ORIENTED_EDGE ( 'NONE', *, *, #28, .T. ) ;
#292 = EDGE_LOOP ( 'NONE', ( #79 ) ) ;
#293 = DIRECTION ( 'NONE',  ( -3.491481338843133355E-15, 1.224646799147353207E-16, -1.000000000000000000 ) ) ;
#294 = CC_DESIGN_PERSON_AND_ORGANIZATION_ASSIGNMENT ( #335, #300, ( #1 ) ) ;
#295 = APPROVAL_DATE_TIME ( #332, #228 ) ;
#296 = CIRCLE ( 'NONE', #299, 0.6999999999999998446 ) ;
#297 = CARTESIAN_POINT ( 'NONE',  ( 3.212162831735682687E-14, -1.126675055215564822E-15, 9.199999999999999289 ) ) ;
#298 = DATE_TIME_ROLE ( 'classification_date' ) ;
#299 = AXIS2_PLACEMENT_3D ( 'NONE', #325, #269, #169 ) ;
#300 = PERSON_AND_ORGANIZATION_ROLE ( 'creator' ) ;
#301 = ADVANCED_FACE ( 'NONE', ( #333, #39 ), #280, .T. ) ;
#302 = ADVANCED_FACE ( 'NONE', ( #16, #86 ), #145, .F. ) ;
#303 = CALENDAR_DATE ( 2021, 13, 12 ) ;
#304 = PERSON_AND_ORGANIZATION ( #182, #237 ) ;
#305 = CARTESIAN_POINT ( 'NONE',  ( -1.389681836178410948E-31, 4.874347726208969079E-33, -3.980206970371113890E-17 ) ) ;
#306 = EDGE_CURVE ( 'NONE', #55, #55, #320, .T. ) ;
#307 = CC_DESIGN_APPROVAL ( #281, ( #1 ) ) ;
#308 = APPROVAL_STATUS ( 'not_yet_approved' ) ;
#309 = ORIENTED_EDGE ( 'NONE', *, *, #142, .F. ) ;
#310 = FACE_OUTER_BOUND ( 'NONE', #51, .T. ) ;
#311 = EDGE_LOOP ( 'NONE', ( #5 ) ) ;
#312 = VERTEX_POINT ( 'NONE', #314 ) ;
#313 = ORIENTED_EDGE ( 'NONE', *, *, #126, .F. ) ;
#314 = CARTESIAN_POINT ( 'NONE',  ( 1.117274028429802674E-14, 0.6999999999999996225, 3.200000000000000178 ) ) ;
#315 = ORIENTED_EDGE ( 'NONE', *, *, #28, .F. ) ;
#316 = CIRCLE ( 'NONE', #244, 1.999999999999996669 ) ;
#317 = ADVANCED_FACE ( 'NONE', ( #114, #141 ), #270, .T. ) ;
#318 = DIRECTION ( 'NONE',  ( 0.0000000000000000000, 1.000000000000000000, 0.0000000000000000000 ) ) ;
#319 = DIRECTION ( 'NONE',  ( 0.0000000000000000000, 1.000000000000000000, 0.0000000000000000000 ) ) ;
#320 = CIRCLE ( 'NONE', #85, 0.6999999999999998446 ) ;
#321 = CARTESIAN_POINT ( 'NONE',  ( 3.212162831735682687E-14, 2.969524369670473466E-32, 9.199999999999999289 ) ) ;
#322 = CIRCLE ( 'NONE', #54, 1.959999999999999520 ) ;
#323 = CARTESIAN_POINT ( 'NONE',  ( 1.326762908760390423E-13, -4.653657836759941941E-15, 38.00000000000000000 ) ) ;
#324 = FACE_BOUND ( 'NONE', #187, .T. ) ;
#325 = CARTESIAN_POINT ( 'NONE',  ( 7.332110811570581624E-15, -2.571758278209441957E-16, 2.100000000000000089 ) ) ;
#326 = PERSON_AND_ORGANIZATION_ROLE ( 'design_owner' ) ;
#327 = PERSON_AND_ORGANIZATION_ROLE ( 'design_supplier' ) ;
#328 = LOCAL_TIME ( 14, 56, 6.000000000000000000, #143 ) ;
#329 = CALENDAR_DATE ( 2021, 13, 12 ) ;
#330 = DIRECTION ( 'NONE',  ( -3.491481338843133355E-15, 1.224646799147353207E-16, -1.000000000000000000 ) ) ;
#331 = CARTESIAN_POINT ( 'NONE',  ( 7.332110811570581624E-15, 5.249159239316498206E-33, 2.100000000000000089 ) ) ;
#332 = DATE_AND_TIME ( #303, #221 ) ;
#333 = FACE_OUTER_BOUND ( 'NONE', #343, .T. ) ;
#334 = AXIS2_PLACEMENT_3D ( 'NONE', #33, #285, #123 ) ;
#335 = PERSON_AND_ORGANIZATION ( #182, #237 ) ;
#336 = LOCAL_TIME ( 14, 56, 6.000000000000000000, #274 ) ;
#337 = EDGE_LOOP ( 'NONE', ( #291 ) ) ;
#338 = DIRECTION ( 'NONE',  ( -3.491481338843133355E-15, 1.224646799147353207E-16, -1.000000000000000000 ) ) ;
#339 = CARTESIAN_POINT ( 'NONE',  ( 1.312796983405018142E-13, -4.604671964794046935E-15, 37.59999999999999432 ) ) ;
#340 = ADVANCED_FACE ( 'NONE', ( #324, #173 ), #268, .F. ) ;
#341 = ADVANCED_FACE ( 'NONE', ( #97 ), #204, .F. ) ;
#342 = DIRECTION ( 'NONE',  ( -4.275831445896958607E-31, -1.000000000000000000, -1.224646799147353207E-16 ) ) ;
#343 = EDGE_LOOP ( 'NONE', ( #159 ) ) ;
ENDSEC;
END-ISO-10303-21;
