ISO-10303-21;
HEADER;
FILE_DESCRIPTION (( 'STEP AP203' ),
    '1' );
FILE_NAME ('381938.step',
    '2021-12-13T13:56:05',
    ( '' ),
    ( '' ),
    'SwSTEP 2.0',
    'SolidWorks 2019',
    '' );
FILE_SCHEMA (( 'CONFIG_CONTROL_DESIGN' ));
ENDSEC;

DATA;
#1 = EDGE_LOOP ( 'NONE', ( #323 ) ) ;
#2 = EDGE_CURVE ( 'NONE', #235, #235, #280, .T. ) ;
#3 = EDGE_LOOP ( 'NONE', ( #21 ) ) ;
#4 = DIRECTION ( 'NONE',  ( -3.491481338843133355E-15, 1.224646799147353207E-16, -1.000000000000000000 ) ) ;
#5 = CARTESIAN_POINT ( 'NONE',  ( 1.361677722148822166E-14, -4.510057973943064175E-16, 3.900000000000000799 ) ) ;
#6 = FACE_OUTER_BOUND ( 'NONE', #179, .T. ) ;
#7 = VERTEX_POINT ( 'NONE', #186 ) ;
#8 = APPROVAL ( #286, 'UNSPECIFIED' ) ;
#9 = AXIS2_PLACEMENT_3D ( 'NONE', #292, #15, #243 ) ;
#10 = EDGE_LOOP ( 'NONE', ( #304 ) ) ;
#11 = PRODUCT_DEFINITION_FORMATION_WITH_SPECIFIED_SOURCE ( 'ANY', '', #60, .NOT_KNOWN. ) ;
#12 = PERSON_AND_ORGANIZATION ( #245, #277 ) ;
#13 = CC_DESIGN_PERSON_AND_ORGANIZATION_ASSIGNMENT ( #19, #260, ( #60 ) ) ;
#14 = CARTESIAN_POINT ( 'NONE',  ( 3.247077645124114651E-14, 1.999999999999995337, 9.300000000000000711 ) ) ;
#15 = DIRECTION ( 'NONE',  ( 0.0000000000000000000, 0.0000000000000000000, 1.000000000000000000 ) ) ;
#16 = AXIS2_PLACEMENT_3D ( 'NONE', #155, #20, #314 ) ;
#17 = FACE_OUTER_BOUND ( 'NONE', #3, .T. ) ;
#18 = EDGE_LOOP ( 'NONE', ( #188 ) ) ;
#19 = PERSON_AND_ORGANIZATION ( #245, #277 ) ;
#20 = DIRECTION ( 'NONE',  ( 3.491481338843133355E-15, -1.224646799147353207E-16, 1.000000000000000000 ) ) ;
#21 = ORIENTED_EDGE ( 'NONE', *, *, #67, .F. ) ;
#22 = CIRCLE ( 'NONE', #201, 0.6499999999999999112 ) ;
#23 = DIRECTION ( 'NONE',  ( 0.0000000000000000000, -1.000000000000000000, 0.0000000000000000000 ) ) ;
#24 = ADVANCED_FACE ( 'NONE', ( #309 ), #258, .F. ) ;
#25 = CARTESIAN_POINT ( 'NONE',  ( 0.0000000000000000000, 0.0000000000000000000, 0.0000000000000000000 ) ) ;
#26 = CC_DESIGN_APPROVAL ( #70, ( #11 ) ) ;
#27 = AXIS2_PLACEMENT_3D ( 'NONE', #31, #89, #33 ) ;
#28 = DIRECTION ( 'NONE',  ( 0.0000000000000000000, -1.000000000000000000, 0.0000000000000000000 ) ) ;
#29 = ADVANCED_FACE ( 'NONE', ( #84, #193 ), #257, .T. ) ;
#30 = CC_DESIGN_PERSON_AND_ORGANIZATION_ASSIGNMENT ( #12, #167, ( #274 ) ) ;
#31 = CARTESIAN_POINT ( 'NONE',  ( 1.326762908760390423E-13, -4.653657836759941941E-15, 38.00000000000000000 ) ) ;
#32 = COORDINATED_UNIVERSAL_TIME_OFFSET ( 1, 0, .AHEAD. ) ;
#33 = DIRECTION ( 'NONE',  ( 0.0000000000000000000, -1.000000000000000000, 0.0000000000000000000 ) ) ;
#34 = SECURITY_CLASSIFICATION_LEVEL ( 'unclassified' ) ;
#35 = UNCERTAINTY_MEASURE_WITH_UNIT (LENGTH_MEASURE( 1.000000000000000082E-05 ), #288, 'distance_accuracy_value', 'NONE');
#36 = DIRECTION ( 'NONE',  ( -3.491481338843133355E-15, 1.232449278406344847E-16, -1.000000000000000000 ) ) ;
#37 = FACE_OUTER_BOUND ( 'NONE', #1, .T. ) ;
#38 = CALENDAR_DATE ( 2021, 13, 12 ) ;
#39 = FACE_BOUND ( 'NONE', #75, .T. ) ;
#40 = VERTEX_POINT ( 'NONE', #264 ) ;
#41 = ADVANCED_FACE ( 'NONE', ( #135, #160 ), #210, .T. ) ;
#42 = CARTESIAN_POINT ( 'NONE',  ( 1.312796983405018142E-13, -4.604359865623687397E-15, 37.59999999999999432 ) ) ;
#43 = EDGE_LOOP ( 'NONE', ( #59 ) ) ;
#44 = PRODUCT_DEFINITION ( 'UNKNOWN', '', #11, #115 ) ;
#45 = DIRECTION ( 'NONE',  ( 4.275831445896958607E-31, 1.000000000000000000, 1.224646799147353207E-16 ) ) ;
#46 = CARTESIAN_POINT ( 'NONE',  ( 1.047444401652940953E-14, -3.400853623377349770E-16, 3.000000000000002665 ) ) ;
#47 = ORIENTED_EDGE ( 'NONE', *, *, #321, .F. ) ;
#48 = AXIS2_PLACEMENT_3D ( 'NONE', #213, #98, #265 ) ;
#49 = ORIENTED_EDGE ( 'NONE', *, *, #142, .T. ) ;
#50 = AXIS2_PLACEMENT_3D ( 'NONE', #197, #206, #219 ) ;
#51 = PLANE ( 'NONE',  #117 ) ;
#52 = FACE_OUTER_BOUND ( 'NONE', #107, .T. ) ;
#53 = DIRECTION ( 'NONE',  ( -3.491481338843133355E-15, 1.224646799147353207E-16, -1.000000000000000000 ) ) ;
#54 = VERTEX_POINT ( 'NONE', #154 ) ;
#55 = CIRCLE ( 'NONE', #246, 0.6499999999999996891 ) ;
#56 = VERTEX_POINT ( 'NONE', #220 ) ;
#57 = ADVANCED_FACE ( 'NONE', ( #17, #224 ), #170, .F. ) ;
#58 = CARTESIAN_POINT ( 'NONE',  ( 6.982962677686266711E-15, 0.6499999999999996891, 2.000000000000000000 ) ) ;
#59 = ORIENTED_EDGE ( 'NONE', *, *, #195, .F. ) ;
#60 = PRODUCT ( '381938', '381938', '', ( #116 ) ) ;
#61 = PERSON_AND_ORGANIZATION_ROLE ( 'creator' ) ;
#62 = COORDINATED_UNIVERSAL_TIME_OFFSET ( 1, 0, .AHEAD. ) ;
#63 = AXIS2_PLACEMENT_3D ( 'NONE', #228, #230, #28 ) ;
#64 = COORDINATED_UNIVERSAL_TIME_OFFSET ( 1, 0, .AHEAD. ) ;
#65 = SHAPE_DEFINITION_REPRESENTATION ( #81, #82 ) ;
#66 = DIRECTION ( 'NONE',  ( 3.491481338843133355E-15, -1.232449278406344847E-16, 1.000000000000000000 ) ) ;
#67 = EDGE_CURVE ( 'NONE', #275, #275, #204, .T. ) ;
#68 = FACE_OUTER_BOUND ( 'NONE', #18, .T. ) ;
#69 = EDGE_LOOP ( 'NONE', ( #80 ) ) ;
#70 = APPROVAL ( #283, 'UNSPECIFIED' ) ;
#71 = ADVANCED_FACE ( 'NONE', ( #269, #68 ), #240, .T. ) ;
#72 = DIRECTION ( 'NONE',  ( -3.491481338843133355E-15, 1.224646799147353207E-16, -1.000000000000000000 ) ) ;
#73 = EDGE_LOOP ( 'NONE', ( #256 ) ) ;
#74 = EDGE_LOOP ( 'NONE', ( #49 ) ) ;
#75 = EDGE_LOOP ( 'NONE', ( #250 ) ) ;
#76 = CARTESIAN_POINT ( 'NONE',  ( 2.692194109054554110E-14, -9.206614540655557907E-16, 7.710750388677675815 ) ) ;
#77 = EDGE_LOOP ( 'NONE', ( #199 ) ) ;
#78 = AXIS2_PLACEMENT_3D ( 'NONE', #120, #175, #145 ) ;
#79 = DIRECTION ( 'NONE',  ( 3.491481338843133355E-15, -1.232449278406344847E-16, 1.000000000000000000 ) ) ;
#80 = ORIENTED_EDGE ( 'NONE', *, *, #218, .T. ) ;
#81 = PRODUCT_DEFINITION_SHAPE ( 'NONE', 'NONE',  #44 ) ;
#82 = ADVANCED_BREP_SHAPE_REPRESENTATION ( '381938', ( #303, #85, #9 ), #231 ) ;
#83 = AXIS2_PLACEMENT_3D ( 'NONE', #216, #95, #294 ) ;
#84 = FACE_OUTER_BOUND ( 'NONE', #73, .T. ) ;
#85 = MANIFOLD_SOLID_BREP ( 'Corps-Déplacer/Copier4[2]', #284 ) ;
#86 = DIRECTION ( 'NONE',  ( 0.0000000000000000000, -1.000000000000000000, 0.0000000000000000000 ) ) ;
#87 = CALENDAR_DATE ( 2021, 13, 12 ) ;
#88 = CIRCLE ( 'NONE', #209, 1.959999999999999520 ) ;
#89 = DIRECTION ( 'NONE',  ( 3.491481338843133355E-15, -1.232449278406344847E-16, 1.000000000000000000 ) ) ;
#90 = PERSON_AND_ORGANIZATION ( #245, #277 ) ;
#91 = PLANE ( 'NONE',  #16 ) ;
#92 = DATE_AND_TIME ( #311, #320 ) ;
#93 = DATE_TIME_ROLE ( 'creation_date' ) ;
#94 = APPROVAL_PERSON_ORGANIZATION ( #237, #70, #157 ) ;
#95 = DIRECTION ( 'NONE',  ( 3.491481338843133355E-15, -1.232449278406344847E-16, 1.000000000000000000 ) ) ;
#96 = CARTESIAN_POINT ( 'NONE',  ( 1.361677722148822166E-14, -4.510057973943064175E-16, 3.900000000000000799 ) ) ;
#97 = DATE_AND_TIME ( #38, #242 ) ;
#98 = DIRECTION ( 'NONE',  ( 3.491481338843133355E-15, -1.232449278406344847E-16, 1.000000000000000000 ) ) ;
#99 = AXIS2_PLACEMENT_3D ( 'NONE', #247, #53, #151 ) ;
#100 = FACE_OUTER_BOUND ( 'NONE', #147, .T. ) ;
#101 = ORIENTED_EDGE ( 'NONE', *, *, #142, .F. ) ;
#102 = DIRECTION ( 'NONE',  ( 0.0000000000000000000, -1.000000000000000000, 0.0000000000000000000 ) ) ;
#103 = EDGE_LOOP ( 'NONE', ( #101 ) ) ;
#104 = DIRECTION ( 'NONE',  ( 3.491481338843133355E-15, -1.232449278406344847E-16, 1.000000000000000000 ) ) ;
#105 = FACE_OUTER_BOUND ( 'NONE', #74, .T. ) ;
#106 = CARTESIAN_POINT ( 'NONE',  ( 6.982962677686266711E-15, 0.6499999999999996891, 2.000000000000000000 ) ) ;
#107 = EDGE_LOOP ( 'NONE', ( #47 ) ) ;
#108 = EDGE_CURVE ( 'NONE', #248, #248, #55, .T. ) ;
#109 = VERTEX_POINT ( 'NONE', #106 ) ;
#110 = TOROIDAL_SURFACE ( 'NONE', #189, 2.649999999999999911, 2.000000000000000000 ) ;
#111 = APPROVAL ( #168, 'UNSPECIFIED' ) ;
#112 = VERTEX_POINT ( 'NONE', #136 ) ;
#113 = DIRECTION ( 'NONE',  ( -4.303073656626438695E-31, -1.000000000000000000, -1.232449278406344847E-16 ) ) ;
#114 = DATE_AND_TIME ( #281, #251 ) ;
#115 = DESIGN_CONTEXT ( 'detailed design', #316, 'design' ) ;
#116 = MECHANICAL_CONTEXT ( 'NONE', #166, 'mechanical' ) ;
#117 = AXIS2_PLACEMENT_3D ( 'NONE', #254, #252, #133 ) ;
#118 = APPROVAL_ROLE ( '' ) ;
#119 = CLOSED_SHELL ( 'NONE', ( #285, #169, #57, #41, #29, #276, #289, #71, #132, #24 ) ) ;
#120 = CARTESIAN_POINT ( 'NONE',  ( 1.326762908760390423E-13, -4.653657836759941941E-15, 38.00000000000000000 ) ) ;
#121 = ORIENTED_EDGE ( 'NONE', *, *, #319, .F. ) ;
#122 = ORIENTED_EDGE ( 'NONE', *, *, #218, .F. ) ;
#123 = AXIS2_PLACEMENT_3D ( 'NONE', #124, #272, #322 ) ;
#124 = CARTESIAN_POINT ( 'NONE',  ( 3.247077645124114651E-14, -1.116528407733732497E-15, 9.300000000000002487 ) ) ;
#125 = DIRECTION ( 'NONE',  ( 4.303073656626438695E-31, 1.000000000000000000, 1.232449278406344847E-16 ) ) ;
#126 = FACE_OUTER_BOUND ( 'NONE', #77, .T. ) ;
#127 = FACE_OUTER_BOUND ( 'NONE', #103, .T. ) ;
#128 = CARTESIAN_POINT ( 'NONE',  ( 3.247077645124114651E-14, -1.999999999999997780, 9.300000000000002487 ) ) ;
#129 = ORIENTED_EDGE ( 'NONE', *, *, #226, .F. ) ;
#130 = FACE_OUTER_BOUND ( 'NONE', #291, .T. ) ;
#131 = EDGE_LOOP ( 'NONE', ( #222 ) ) ;
#132 = ADVANCED_FACE ( 'NONE', ( #144 ), #139, .F. ) ;
#133 = DIRECTION ( 'NONE',  ( -4.275831445896958607E-31, -1.000000000000000000, -1.224646799147353207E-16 ) ) ;
#134 = LOCAL_TIME ( 14, 56, 5.000000000000000000, #62 ) ;
#135 = FACE_OUTER_BOUND ( 'NONE', #267, .T. ) ;
#136 = CARTESIAN_POINT ( 'NONE',  ( 1.361677722148822166E-14, -0.8639428900508254738, 3.900000000000000799 ) ) ;
#137 = PERSON_AND_ORGANIZATION_ROLE ( 'creator' ) ;
#138 = CALENDAR_DATE ( 2021, 13, 12 ) ;
#139 = PLANE ( 'NONE',  #217 ) ;
#140 = DATE_TIME_ROLE ( 'classification_date' ) ;
#141 = FACE_OUTER_BOUND ( 'NONE', #69, .T. ) ;
#142 = EDGE_CURVE ( 'NONE', #109, #109, #191, .T. ) ;
#143 =( NAMED_UNIT ( * ) PLANE_ANGLE_UNIT ( ) SI_UNIT ( $, .RADIAN. ) );
#144 = FACE_OUTER_BOUND ( 'NONE', #177, .T. ) ;
#145 = DIRECTION ( 'NONE',  ( 0.0000000000000000000, -1.000000000000000000, 0.0000000000000000000 ) ) ;
#146 = CIRCLE ( 'NONE', #78, 1.599999999999996314 ) ;
#147 = EDGE_LOOP ( 'NONE', ( #129 ) ) ;
#148 = CARTESIAN_POINT ( 'NONE',  ( 1.361677722148822166E-14, -1.150000000000000355, 3.900000000000000799 ) ) ;
#149 = CC_DESIGN_PERSON_AND_ORGANIZATION_ASSIGNMENT ( #239, #61, ( #11 ) ) ;
#150 = FACE_OUTER_BOUND ( 'NONE', #302, .T. ) ;
#151 = DIRECTION ( 'NONE',  ( 0.0000000000000000000, 1.000000000000000000, 0.0000000000000000000 ) ) ;
#152 = FACE_OUTER_BOUND ( 'NONE', #278, .T. ) ;
#153 = CC_DESIGN_APPROVAL ( #111, ( #274 ) ) ;
#154 = CARTESIAN_POINT ( 'NONE',  ( 6.982962677686273021E-15, -0.6500000000000001332, 2.000000000000001776 ) ) ;
#155 = CARTESIAN_POINT ( 'NONE',  ( -1.282786050030986720E-31, 4.499407780543503993E-33, -3.674045270584275650E-17 ) ) ;
#156 = DIRECTION ( 'NONE',  ( 3.491481338843133355E-15, -1.232449278406344847E-16, 1.000000000000000000 ) ) ;
#157 = APPROVAL_ROLE ( '' ) ;
#158 = DIRECTION ( 'NONE',  ( 3.491481338843133355E-15, -1.232449278406344847E-16, 1.000000000000000000 ) ) ;
#159 = PERSON_AND_ORGANIZATION ( #245, #277 ) ;
#160 = FACE_BOUND ( 'NONE', #207, .T. ) ;
#161 = ADVANCED_FACE ( 'NONE', ( #127 ), #51, .T. ) ;
#162 = APPLICATION_PROTOCOL_DEFINITION ( 'international standard', 'config_control_design', 1994, #166 ) ;
#163 = CIRCLE ( 'NONE', #301, 0.8639428900508250297 ) ;
#164 = DIRECTION ( 'NONE',  ( 0.0000000000000000000, -1.000000000000000000, 0.0000000000000000000 ) ) ;
#165 = DIRECTION ( 'NONE',  ( -4.303073656626438695E-31, -1.000000000000000000, -1.232449278406344847E-16 ) ) ;
#166 = APPLICATION_CONTEXT ( 'configuration controlled 3d designs of mechanical parts and assemblies' ) ;
#167 = PERSON_AND_ORGANIZATION_ROLE ( 'classification_officer' ) ;
#168 = APPROVAL_STATUS ( 'not_yet_approved' ) ;
#169 = ADVANCED_FACE ( 'NONE', ( #52, #130 ), #110, .F. ) ;
#170 = PLANE ( 'NONE',  #192 ) ;
#171 = CYLINDRICAL_SURFACE ( 'NONE', #194, 0.6499999999999999112 ) ;
#172 = ORIENTED_EDGE ( 'NONE', *, *, #108, .F. ) ;
#173 = CIRCLE ( 'NONE', #123, 1.999999999999996669 ) ;
#174 = DIRECTION ( 'NONE',  ( 0.0000000000000000000, 1.000000000000000000, 0.0000000000000000000 ) ) ;
#175 = DIRECTION ( 'NONE',  ( 3.491481338843133355E-15, -1.232449278406344847E-16, 1.000000000000000000 ) ) ;
#176 = AXIS2_PLACEMENT_3D ( 'NONE', #58, #158, #113 ) ;
#177 = EDGE_LOOP ( 'NONE', ( #299 ) ) ;
#178 = ADVANCED_FACE ( 'NONE', ( #150, #105 ), #249, .T. ) ;
#179 = EDGE_LOOP ( 'NONE', ( #225 ) ) ;
#180 = CC_DESIGN_APPROVAL ( #8, ( #44 ) ) ;
#181 = CC_DESIGN_SECURITY_CLASSIFICATION ( #274, ( #11 ) ) ;
#182 = DIRECTION ( 'NONE',  ( -3.491481338843133355E-15, 1.232449278406344847E-16, -1.000000000000000000 ) ) ;
#183 = DIRECTION ( 'NONE',  ( 0.0000000000000000000, -1.000000000000000000, 0.0000000000000000000 ) ) ;
#184 = CC_DESIGN_PERSON_AND_ORGANIZATION_ASSIGNMENT ( #159, #259, ( #11 ) ) ;
#185 = DIRECTION ( 'NONE',  ( -4.360181816633448487E-31, -1.000000000000000000, -1.232449278406344847E-16 ) ) ;
#186 = CARTESIAN_POINT ( 'NONE',  ( 1.326762908760390423E-13, -1.600000000000000977, 38.00000000000000000 ) ) ;
#187 = ADVANCED_FACE ( 'NONE', ( #6 ), #91, .F. ) ;
#188 = ORIENTED_EDGE ( 'NONE', *, *, #234, .T. ) ;
#189 = AXIS2_PLACEMENT_3D ( 'NONE', #229, #79, #185 ) ;
#190 = DATE_AND_TIME ( #87, #282 ) ;
#191 = CIRCLE ( 'NONE', #99, 0.6499999999999999112 ) ;
#192 = AXIS2_PLACEMENT_3D ( 'NONE', #198, #205, #244 ) ;
#193 = FACE_OUTER_BOUND ( 'NONE', #131, .T. ) ;
#194 = AXIS2_PLACEMENT_3D ( 'NONE', #196, #290, #23 ) ;
#195 = EDGE_CURVE ( 'NONE', #7, #7, #146, .T. ) ;
#196 = CARTESIAN_POINT ( 'NONE',  ( 1.326762908760390423E-13, -4.653657836759941941E-15, 38.00000000000000000 ) ) ;
#197 = CARTESIAN_POINT ( 'NONE',  ( 6.982962677686273021E-15, -2.168404344971008868E-16, 2.000000000000001776 ) ) ;
#198 = CARTESIAN_POINT ( 'NONE',  ( 1.361677722148822009E-14, 0.8639428900508245857, 3.899999999999999911 ) ) ;
#199 = ORIENTED_EDGE ( 'NONE', *, *, #226, .T. ) ;
#200 = CC_DESIGN_PERSON_AND_ORGANIZATION_ASSIGNMENT ( #90, #137, ( #44 ) ) ;
#201 = AXIS2_PLACEMENT_3D ( 'NONE', #46, #202, #266 ) ;
#202 = DIRECTION ( 'NONE',  ( 3.491481338843133355E-15, -1.232449278406344847E-16, 1.000000000000000000 ) ) ;
#203 = EDGE_CURVE ( 'NONE', #212, #212, #22, .T. ) ;
#204 = CIRCLE ( 'NONE', #227, 1.149999999999999911 ) ;
#205 = DIRECTION ( 'NONE',  ( 3.491481338843133355E-15, -1.232449278406344847E-16, 1.000000000000000000 ) ) ;
#206 = DIRECTION ( 'NONE',  ( 3.491481338843133355E-15, -1.232449278406344847E-16, 1.000000000000000000 ) ) ;
#207 = EDGE_LOOP ( 'NONE', ( #208 ) ) ;
#208 = ORIENTED_EDGE ( 'NONE', *, *, #67, .T. ) ;
#209 = AXIS2_PLACEMENT_3D ( 'NONE', #76, #104, #183 ) ;
#210 = CONICAL_SURFACE ( 'NONE', #48, 1.149999999999999911, 0.2094395102393127039 ) ;
#211 = CC_DESIGN_DATE_AND_TIME_ASSIGNMENT ( #215, #140, ( #274 ) ) ;
#212 = VERTEX_POINT ( 'NONE', #305 ) ;
#213 = CARTESIAN_POINT ( 'NONE',  ( 1.361677722148822166E-14, -4.510057973943064175E-16, 3.900000000000000799 ) ) ;
#214 = PERSON_AND_ORGANIZATION ( #245, #277 ) ;
#215 = DATE_AND_TIME ( #138, #134 ) ;
#216 = CARTESIAN_POINT ( 'NONE',  ( 1.312796983405018142E-13, -4.604359865623687397E-15, 37.59999999999999432 ) ) ;
#217 = AXIS2_PLACEMENT_3D ( 'NONE', #221, #182, #125 ) ;
#218 = EDGE_CURVE ( 'NONE', #54, #54, #223, .T. ) ;
#219 = DIRECTION ( 'NONE',  ( 0.0000000000000000000, -1.000000000000000000, 0.0000000000000000000 ) ) ;
#220 = CARTESIAN_POINT ( 'NONE',  ( 1.312796983405018142E-13, -2.000000000000001776, 37.59999999999999432 ) ) ;
#221 = CARTESIAN_POINT ( 'NONE',  ( 1.326762908760390423E-13, -4.653657836759941941E-15, 38.00000000000000000 ) ) ;
#222 = ORIENTED_EDGE ( 'NONE', *, *, #319, .T. ) ;
#223 = CIRCLE ( 'NONE', #50, 0.6499999999999999112 ) ;
#224 = FACE_BOUND ( 'NONE', #10, .T. ) ;
#225 = ORIENTED_EDGE ( 'NONE', *, *, #108, .T. ) ;
#226 = EDGE_CURVE ( 'NONE', #255, #255, #173, .T. ) ;
#227 = AXIS2_PLACEMENT_3D ( 'NONE', #96, #297, #164 ) ;
#228 = CARTESIAN_POINT ( 'NONE',  ( 1.326762908760390423E-13, -4.653657836759941941E-15, 38.00000000000000000 ) ) ;
#229 = CARTESIAN_POINT ( 'NONE',  ( 1.047444401652940007E-14, -4.336808689942017736E-16, 3.000000000000000000 ) ) ;
#230 = DIRECTION ( 'NONE',  ( 3.491481338843133355E-15, -1.232449278406344847E-16, 1.000000000000000000 ) ) ;
#231 =( GEOMETRIC_REPRESENTATION_CONTEXT ( 3 ) GLOBAL_UNCERTAINTY_ASSIGNED_CONTEXT ( ( #35 ) ) GLOBAL_UNIT_ASSIGNED_CONTEXT ( ( #288, #143, #310 ) ) REPRESENTATION_CONTEXT ( 'NONE', 'WORKASPACE' ) );
#232 = DIRECTION ( 'NONE',  ( 3.491481338843133355E-15, -1.232449278406344847E-16, 1.000000000000000000 ) ) ;
#233 = DIRECTION ( 'NONE',  ( 4.275831445896958607E-31, 1.000000000000000000, 1.224646799147353207E-16 ) ) ;
#234 = EDGE_CURVE ( 'NONE', #56, #56, #261, .T. ) ;
#235 = VERTEX_POINT ( 'NONE', #298 ) ;
#236 = CC_DESIGN_DATE_AND_TIME_ASSIGNMENT ( #114, #93, ( #44 ) ) ;
#237 = PERSON_AND_ORGANIZATION ( #245, #277 ) ;
#238 = APPROVAL_DATE_TIME ( #190, #70 ) ;
#239 = PERSON_AND_ORGANIZATION ( #245, #277 ) ;
#240 = CONICAL_SURFACE ( 'NONE', #263, 1.999999999999997113, 0.7853981633974433940 ) ;
#241 = COORDINATED_UNIVERSAL_TIME_OFFSET ( 1, 0, .AHEAD. ) ;
#242 = LOCAL_TIME ( 14, 56, 5.000000000000000000, #313 ) ;
#243 = DIRECTION ( 'NONE',  ( 1.000000000000000000, 0.0000000000000000000, 0.0000000000000000000 ) ) ;
#244 = DIRECTION ( 'NONE',  ( -4.303073656626438695E-31, -1.000000000000000000, -1.232449278406344847E-16 ) ) ;
#245 = PERSON ( 'UNSPECIFIED', 'UNSPECIFIED', 'UNSPECIFIED', ('UNSPECIFIED'), ('UNSPECIFIED'), ('UNSPECIFIED') ) ;
#246 = AXIS2_PLACEMENT_3D ( 'NONE', #295, #72, #45 ) ;
#247 = CARTESIAN_POINT ( 'NONE',  ( 6.982962677686266711E-15, -2.449293598294706414E-16, 2.000000000000000000 ) ) ;
#248 = VERTEX_POINT ( 'NONE', #253 ) ;
#249 = CYLINDRICAL_SURFACE ( 'NONE', #296, 0.6499999999999998002 ) ;
#250 = ORIENTED_EDGE ( 'NONE', *, *, #2, .T. ) ;
#251 = LOCAL_TIME ( 14, 56, 5.000000000000000000, #241 ) ;
#252 = DIRECTION ( 'NONE',  ( 3.491481338843133355E-15, -1.224646799147353207E-16, 1.000000000000000000 ) ) ;
#253 = CARTESIAN_POINT ( 'NONE',  ( 2.137183397710479182E-32, 0.6499999999999996891, 6.121136532892404794E-18 ) ) ;
#254 = CARTESIAN_POINT ( 'NONE',  ( 6.982962677686266711E-15, 4.874219293651033120E-33, 2.000000000000000000 ) ) ;
#255 = VERTEX_POINT ( 'NONE', #128 ) ;
#256 = ORIENTED_EDGE ( 'NONE', *, *, #2, .F. ) ;
#257 = CYLINDRICAL_SURFACE ( 'NONE', #27, 1.959999999999999964 ) ;
#258 = PLANE ( 'NONE',  #176 ) ;
#259 = PERSON_AND_ORGANIZATION_ROLE ( 'design_supplier' ) ;
#260 = PERSON_AND_ORGANIZATION_ROLE ( 'design_owner' ) ;
#261 = CIRCLE ( 'NONE', #83, 1.999999999999997113 ) ;
#262 = APPROVAL_DATE_TIME ( #92, #8 ) ;
#263 = AXIS2_PLACEMENT_3D ( 'NONE', #42, #36, #174 ) ;
#264 = CARTESIAN_POINT ( 'NONE',  ( 2.692194109054554110E-14, -1.960000000000000409, 7.710750388677675815 ) ) ;
#265 = DIRECTION ( 'NONE',  ( 0.0000000000000000000, -1.000000000000000000, 0.0000000000000000000 ) ) ;
#266 = DIRECTION ( 'NONE',  ( 0.0000000000000000000, -1.000000000000000000, 0.0000000000000000000 ) ) ;
#267 = EDGE_LOOP ( 'NONE', ( #121 ) ) ;
#268 = APPROVAL_PERSON_ORGANIZATION ( #214, #111, #118 ) ;
#269 = FACE_BOUND ( 'NONE', #43, .T. ) ;
#270 = ORIENTED_EDGE ( 'NONE', *, *, #234, .F. ) ;
#271 = PRODUCT_RELATED_PRODUCT_CATEGORY ( 'detail', '', ( #60 ) ) ;
#272 = DIRECTION ( 'NONE',  ( 3.491481338843133355E-15, -1.232449278406344847E-16, 1.000000000000000000 ) ) ;
#273 = EDGE_LOOP ( 'NONE', ( #122 ) ) ;
#274 = SECURITY_CLASSIFICATION ( '', '', #34 ) ;
#275 = VERTEX_POINT ( 'NONE', #148 ) ;
#276 = ADVANCED_FACE ( 'NONE', ( #100, #39 ), #317, .F. ) ;
#277 = ORGANIZATION ( 'UNSPECIFIED', 'UNSPECIFIED', '' ) ;
#278 = EDGE_LOOP ( 'NONE', ( #270 ) ) ;
#279 = APPROVAL_ROLE ( '' ) ;
#280 = CIRCLE ( 'NONE', #312, 1.959999999999999964 ) ;
#281 = CALENDAR_DATE ( 2021, 13, 12 ) ;
#282 = LOCAL_TIME ( 14, 56, 5.000000000000000000, #32 ) ;
#283 = APPROVAL_STATUS ( 'not_yet_approved' ) ;
#284 = CLOSED_SHELL ( 'NONE', ( #187, #178, #161 ) ) ;
#285 = ADVANCED_FACE ( 'NONE', ( #37, #141 ), #171, .T. ) ;
#286 = APPROVAL_STATUS ( 'not_yet_approved' ) ;
#287 = APPROVAL_PERSON_ORGANIZATION ( #315, #8, #279 ) ;
#288 =( LENGTH_UNIT ( ) NAMED_UNIT ( * ) SI_UNIT ( .MILLI., .METRE. ) );
#289 = ADVANCED_FACE ( 'NONE', ( #152, #126 ), #300, .T. ) ;
#290 = DIRECTION ( 'NONE',  ( 3.491481338843133355E-15, -1.232449278406344847E-16, 1.000000000000000000 ) ) ;
#291 = EDGE_LOOP ( 'NONE', ( #306 ) ) ;
#292 = CARTESIAN_POINT ( 'NONE',  ( 0.0000000000000000000, 0.0000000000000000000, 0.0000000000000000000 ) ) ;
#293 = APPROVAL_DATE_TIME ( #97, #111 ) ;
#294 = DIRECTION ( 'NONE',  ( 0.0000000000000000000, -1.000000000000000000, 0.0000000000000000000 ) ) ;
#295 = CARTESIAN_POINT ( 'NONE',  ( -2.565572100061973441E-31, 8.998815561087007986E-33, -7.348090541168551300E-17 ) ) ;
#296 = AXIS2_PLACEMENT_3D ( 'NONE', #25, #4, #233 ) ;
#297 = DIRECTION ( 'NONE',  ( 3.491481338843133355E-15, -1.232449278406344847E-16, 1.000000000000000000 ) ) ;
#298 = CARTESIAN_POINT ( 'NONE',  ( 3.247077645124114651E-14, -1.960000000000001297, 9.300000000000002487 ) ) ;
#299 = ORIENTED_EDGE ( 'NONE', *, *, #195, .T. ) ;
#300 = CYLINDRICAL_SURFACE ( 'NONE', #63, 1.999999999999996669 ) ;
#301 = AXIS2_PLACEMENT_3D ( 'NONE', #5, #232, #102 ) ;
#302 = EDGE_LOOP ( 'NONE', ( #172 ) ) ;
#303 = MANIFOLD_SOLID_BREP ( 'Corps-Déplacer/Copier4[1]', #119 ) ;
#304 = ORIENTED_EDGE ( 'NONE', *, *, #321, .T. ) ;
#305 = CARTESIAN_POINT ( 'NONE',  ( 1.047444401652940953E-14, -0.6500000000000001332, 3.000000000000002665 ) ) ;
#306 = ORIENTED_EDGE ( 'NONE', *, *, #203, .T. ) ;
#307 = AXIS2_PLACEMENT_3D ( 'NONE', #14, #66, #165 ) ;
#308 = CARTESIAN_POINT ( 'NONE',  ( 3.247077645124114651E-14, -1.116528407733732497E-15, 9.300000000000002487 ) ) ;
#309 = FACE_OUTER_BOUND ( 'NONE', #273, .T. ) ;
#310 =( NAMED_UNIT ( * ) SI_UNIT ( $, .STERADIAN. ) SOLID_ANGLE_UNIT ( ) );
#311 = CALENDAR_DATE ( 2021, 13, 12 ) ;
#312 = AXIS2_PLACEMENT_3D ( 'NONE', #308, #156, #86 ) ;
#313 = COORDINATED_UNIVERSAL_TIME_OFFSET ( 1, 0, .AHEAD. ) ;
#314 = DIRECTION ( 'NONE',  ( -4.275831445896958607E-31, -1.000000000000000000, -1.224646799147353207E-16 ) ) ;
#315 = PERSON_AND_ORGANIZATION ( #245, #277 ) ;
#316 = APPLICATION_CONTEXT ( 'configuration controlled 3d designs of mechanical parts and assemblies' ) ;
#317 = PLANE ( 'NONE',  #307 ) ;
#318 = APPLICATION_PROTOCOL_DEFINITION ( 'international standard', 'config_control_design', 1994, #316 ) ;
#319 = EDGE_CURVE ( 'NONE', #40, #40, #88, .T. ) ;
#320 = LOCAL_TIME ( 14, 56, 5.000000000000000000, #64 ) ;
#321 = EDGE_CURVE ( 'NONE', #112, #112, #163, .T. ) ;
#322 = DIRECTION ( 'NONE',  ( 0.0000000000000000000, -1.000000000000000000, 0.0000000000000000000 ) ) ;
#323 = ORIENTED_EDGE ( 'NONE', *, *, #203, .F. ) ;
ENDSEC;
END-ISO-10303-21;
