ISO-10303-21;
HEADER;
FILE_DESCRIPTION (( 'STEP AP203' ),
    '1' );
FILE_NAME ('381937.step',
    '2021-12-13T13:56:04',
    ( '' ),
    ( '' ),
    'SwSTEP 2.0',
    'SolidWorks 2019',
    '' );
FILE_SCHEMA (( 'CONFIG_CONTROL_DESIGN' ));
ENDSEC;

DATA;
#1 = CARTESIAN_POINT ( 'NONE',  ( 3.316907271900976056E-14, 1.999999999999995337, 9.500000000000000000 ) ) ;
#2 = VERTEX_POINT ( 'NONE', #188 ) ;
#3 = ADVANCED_FACE ( 'NONE', ( #285 ), #197, .F. ) ;
#4 = DIRECTION ( 'NONE',  ( -3.491481338843133355E-15, 1.224646799147353207E-16, -1.000000000000000000 ) ) ;
#5 = CARTESIAN_POINT ( 'NONE',  ( 1.326762908760390423E-13, -4.653657836759941941E-15, 38.00000000000000000 ) ) ;
#6 = DIRECTION ( 'NONE',  ( 1.000000000000000000, 0.0000000000000000000, 0.0000000000000000000 ) ) ;
#7 = ADVANCED_FACE ( 'NONE', ( #282, #289 ), #117, .T. ) ;
#8 = APPROVAL_DATE_TIME ( #170, #316 ) ;
#9 = DIRECTION ( 'NONE',  ( 0.0000000000000000000, 1.000000000000000000, 0.0000000000000000000 ) ) ;
#10 = DIRECTION ( 'NONE',  ( -3.491481338843133355E-15, 1.224646799147353207E-16, -1.000000000000000000 ) ) ;
#11 = EDGE_CURVE ( 'NONE', #293, #293, #216, .T. ) ;
#12 = CALENDAR_DATE ( 2021, 13, 12 ) ;
#13 = CARTESIAN_POINT ( 'NONE',  ( 1.047444401652939849E-14, -4.336808689942017736E-16, 2.999999999999999556 ) ) ;
#14 = EDGE_LOOP ( 'NONE', ( #160 ) ) ;
#15 = CYLINDRICAL_SURFACE ( 'NONE', #109, 0.5999999999999997558 ) ;
#16 = APPLICATION_CONTEXT ( 'configuration controlled 3d designs of mechanical parts and assemblies' ) ;
#17 = CC_DESIGN_DATE_AND_TIME_ASSIGNMENT ( #208, #283, ( #217 ) ) ;
#18 = PERSON_AND_ORGANIZATION ( #127, #75 ) ;
#19 = ORIENTED_EDGE ( 'NONE', *, *, #277, .T. ) ;
#20 = CIRCLE ( 'NONE', #263, 0.6437047985323824939 ) ;
#21 = DIRECTION ( 'NONE',  ( -3.491481338843133355E-15, 1.224646799147353207E-16, -1.000000000000000000 ) ) ;
#22 = PRODUCT_DEFINITION_FORMATION_WITH_SPECIFIED_SOURCE ( 'ANY', '', #198, .NOT_KNOWN. ) ;
#23 = CARTESIAN_POINT ( 'NONE',  ( 3.316907271900976056E-14, 1.959999999999998632, 9.500000000000000000 ) ) ;
#24 = PRODUCT_DEFINITION ( 'UNKNOWN', '', #22, #211 ) ;
#25 = DIRECTION ( 'NONE',  ( 4.275831445896958607E-31, 1.000000000000000000, 1.224646799147353207E-16 ) ) ;
#26 = CONICAL_SURFACE ( 'NONE', #151, 0.7891310281069555677, 0.2094395102393058761 ) ;
#27 = ORIENTED_EDGE ( 'NONE', *, *, #11, .F. ) ;
#28 = CC_DESIGN_PERSON_AND_ORGANIZATION_ASSIGNMENT ( #163, #268, ( #198 ) ) ;
#29 = APPLICATION_PROTOCOL_DEFINITION ( 'international standard', 'config_control_design', 1994, #266 ) ;
#30 = LOCAL_TIME ( 14, 56, 4.000000000000000000, #249 ) ;
#31 = PLANE ( 'NONE',  #328 ) ;
#32 = APPROVAL_ROLE ( '' ) ;
#33 = DIRECTION ( 'NONE',  ( 0.0000000000000000000, 0.0000000000000000000, 1.000000000000000000 ) ) ;
#34 = DIRECTION ( 'NONE',  ( -3.491481338843133355E-15, 1.224646799147353207E-16, -1.000000000000000000 ) ) ;
#35 = DIRECTION ( 'NONE',  ( -3.491481338843133355E-15, 1.224646799147353207E-16, -1.000000000000000000 ) ) ;
#36 = EDGE_CURVE ( 'NONE', #320, #320, #68, .T. ) ;
#37 = DIRECTION ( 'NONE',  ( 0.0000000000000000000, 1.000000000000000000, 0.0000000000000000000 ) ) ;
#38 = CARTESIAN_POINT ( 'NONE',  ( -1.175890263883562930E-31, 4.124467834878039591E-33, -3.367883570797437410E-17 ) ) ;
#39 = PLANE ( 'NONE',  #301 ) ;
#40 = ORIENTED_EDGE ( 'NONE', *, *, #113, .F. ) ;
#41 = AXIS2_PLACEMENT_3D ( 'NONE', #59, #227, #115 ) ;
#42 = CARTESIAN_POINT ( 'NONE',  ( 2.762023735831416461E-14, -9.687875142347794459E-16, 7.910750388677674216 ) ) ;
#43 = EDGE_LOOP ( 'NONE', ( #107 ) ) ;
#44 = DIRECTION ( 'NONE',  ( -3.491481338843133355E-15, 1.224646799147353207E-16, -1.000000000000000000 ) ) ;
#45 = SECURITY_CLASSIFICATION_LEVEL ( 'unclassified' ) ;
#46 = VERTEX_POINT ( 'NONE', #51 ) ;
#47 = CIRCLE ( 'NONE', #270, 1.599999999999996314 ) ;
#48 = DIRECTION ( 'NONE',  ( -4.275831445896958607E-31, -1.000000000000000000, -1.224646799147353207E-16 ) ) ;
#49 = CARTESIAN_POINT ( 'NONE',  ( 6.284666409917640040E-15, 0.5999999999999996447, 1.800000000000000044 ) ) ;
#50 = ADVANCED_FACE ( 'NONE', ( #257 ), #88, .F. ) ;
#51 = CARTESIAN_POINT ( 'NONE',  ( 1.431507348925684676E-14, 1.149999999999999689, 4.100000000000000533 ) ) ;
#52 = CIRCLE ( 'NONE', #116, 1.999999999999996669 ) ;
#53 = CYLINDRICAL_SURFACE ( 'NONE', #83, 1.999999999999996669 ) ;
#54 = AXIS2_PLACEMENT_3D ( 'NONE', #236, #35, #255 ) ;
#55 = EDGE_CURVE ( 'NONE', #213, #213, #52, .T. ) ;
#56 = PERSON_AND_ORGANIZATION ( #127, #75 ) ;
#57 = DIRECTION ( 'NONE',  ( -3.491481338843133355E-15, 1.224646799147353207E-16, -1.000000000000000000 ) ) ;
#58 = PERSON_AND_ORGANIZATION ( #127, #75 ) ;
#59 = CARTESIAN_POINT ( 'NONE',  ( 3.316907271900976056E-14, -1.163414459189985485E-15, 9.500000000000000000 ) ) ;
#60 = PERSON_AND_ORGANIZATION ( #127, #75 ) ;
#61 = CIRCLE ( 'NONE', #41, 1.959999999999999964 ) ;
#62 = EDGE_LOOP ( 'NONE', ( #142 ) ) ;
#63 = SHAPE_DEFINITION_REPRESENTATION ( #262, #82 ) ;
#64 = CALENDAR_DATE ( 2021, 13, 12 ) ;
#65 = EDGE_CURVE ( 'NONE', #186, #186, #61, .T. ) ;
#66 = CARTESIAN_POINT ( 'NONE',  ( 1.326762908760390423E-13, -4.653657836759941941E-15, 38.00000000000000000 ) ) ;
#67 = CARTESIAN_POINT ( 'NONE',  ( 1.047444401652940007E-14, -3.673940397442059868E-16, 3.000000000000000000 ) ) ;
#68 = CIRCLE ( 'NONE', #206, 0.5999999999999998668 ) ;
#69 = EDGE_LOOP ( 'NONE', ( #224 ) ) ;
#70 = VERTEX_POINT ( 'NONE', #104 ) ;
#71 = DIRECTION ( 'NONE',  ( 3.491481338843133355E-15, -1.224646799147353207E-16, 1.000000000000000000 ) ) ;
#72 = APPROVAL ( #280, 'UNSPECIFIED' ) ;
#73 = CONICAL_SURFACE ( 'NONE', #318, 1.959999999999999520, 0.2094395102393127039 ) ;
#74 = VERTEX_POINT ( 'NONE', #244 ) ;
#75 = ORGANIZATION ( 'UNSPECIFIED', 'UNSPECIFIED', '' ) ;
#76 = VERTEX_POINT ( 'NONE', #78 ) ;
#77 = DIRECTION ( 'NONE',  ( -3.491481338843133355E-15, 1.224646799147353207E-16, -1.000000000000000000 ) ) ;
#78 = CARTESIAN_POINT ( 'NONE',  ( 1.312796983405018142E-13, 1.999999999999992228, 37.59999999999999432 ) ) ;
#79 =( NAMED_UNIT ( * ) PLANE_ANGLE_UNIT ( ) SI_UNIT ( $, .RADIAN. ) );
#80 = CONICAL_SURFACE ( 'NONE', #158, 1.599999999999996314, 0.7853981633974433940 ) ;
#81 = EDGE_LOOP ( 'NONE', ( #207 ) ) ;
#82 = ADVANCED_BREP_SHAPE_REPRESENTATION ( '381937', ( #98, #96, #173 ), #304 ) ;
#83 = AXIS2_PLACEMENT_3D ( 'NONE', #112, #159, #25 ) ;
#84 = CARTESIAN_POINT ( 'NONE',  ( 1.192628359376436333E-14, -4.183177170772591815E-16, 3.415823381635491263 ) ) ;
#85 = FACE_OUTER_BOUND ( 'NONE', #220, .T. ) ;
#86 = EDGE_LOOP ( 'NONE', ( #274 ) ) ;
#87 = EDGE_LOOP ( 'NONE', ( #111 ) ) ;
#88 = PLANE ( 'NONE',  #340 ) ;
#89 = DIRECTION ( 'NONE',  ( -3.491481338843133355E-15, 1.224646799147353207E-16, -1.000000000000000000 ) ) ;
#90 = ORIENTED_EDGE ( 'NONE', *, *, #11, .T. ) ;
#91 = DATE_AND_TIME ( #145, #233 ) ;
#92 = FACE_OUTER_BOUND ( 'NONE', #62, .T. ) ;
#93 = COORDINATED_UNIVERSAL_TIME_OFFSET ( 1, 0, .AHEAD. ) ;
#94 = AXIS2_PLACEMENT_3D ( 'NONE', #38, #180, #174 ) ;
#95 = EDGE_CURVE ( 'NONE', #70, #70, #315, .T. ) ;
#96 = MANIFOLD_SOLID_BREP ( 'Corps-Déplacer/Copier1[2]', #259 ) ;
#97 = CC_DESIGN_PERSON_AND_ORGANIZATION_ASSIGNMENT ( #314, #121, ( #22 ) ) ;
#98 = MANIFOLD_SOLID_BREP ( 'Corps-Déplacer/Copier1[1]', #155 ) ;
#99 = FACE_OUTER_BOUND ( 'NONE', #43, .T. ) ;
#100 = CARTESIAN_POINT ( 'NONE',  ( 1.047444401652940007E-14, 0.5999999999999996447, 3.000000000000000000 ) ) ;
#101 = CC_DESIGN_APPROVAL ( #316, ( #24 ) ) ;
#102 = ORIENTED_EDGE ( 'NONE', *, *, #277, .F. ) ;
#103 = DIRECTION ( 'NONE',  ( 0.0000000000000000000, 1.000000000000000000, 0.0000000000000000000 ) ) ;
#104 = CARTESIAN_POINT ( 'NONE',  ( 1.431507348925684360E-14, 0.7891310281069550125, 4.099999999999999645 ) ) ;
#105 = ADVANCED_FACE ( 'NONE', ( #329, #85 ), #39, .F. ) ;
#106 = DIRECTION ( 'NONE',  ( 4.275831445896958607E-31, 1.000000000000000000, 1.224646799147353207E-16 ) ) ;
#107 = ORIENTED_EDGE ( 'NONE', *, *, #269, .F. ) ;
#108 = DIRECTION ( 'NONE',  ( 0.0000000000000000000, 1.000000000000000000, 0.0000000000000000000 ) ) ;
#109 = AXIS2_PLACEMENT_3D ( 'NONE', #295, #21, #218 ) ;
#110 = MECHANICAL_CONTEXT ( 'NONE', #16, 'mechanical' ) ;
#111 = ORIENTED_EDGE ( 'NONE', *, *, #95, .T. ) ;
#112 = CARTESIAN_POINT ( 'NONE',  ( 0.0000000000000000000, 0.0000000000000000000, 0.0000000000000000000 ) ) ;
#113 = EDGE_CURVE ( 'NONE', #184, #184, #172, .T. ) ;
#114 = ORIENTED_EDGE ( 'NONE', *, *, #271, .T. ) ;
#115 = DIRECTION ( 'NONE',  ( 0.0000000000000000000, 1.000000000000000000, 0.0000000000000000000 ) ) ;
#116 = AXIS2_PLACEMENT_3D ( 'NONE', #256, #34, #275 ) ;
#117 = CYLINDRICAL_SURFACE ( 'NONE', #54, 1.959999999999999964 ) ;
#118 = EDGE_CURVE ( 'NONE', #74, #74, #150, .T. ) ;
#119 = ORIENTED_EDGE ( 'NONE', *, *, #148, .T. ) ;
#120 = ORIENTED_EDGE ( 'NONE', *, *, #269, .T. ) ;
#121 = PERSON_AND_ORGANIZATION_ROLE ( 'creator' ) ;
#122 = DIRECTION ( 'NONE',  ( 0.0000000000000000000, 1.000000000000000000, 0.0000000000000000000 ) ) ;
#123 = DIRECTION ( 'NONE',  ( -3.491481338843133355E-15, 1.224646799147353207E-16, -1.000000000000000000 ) ) ;
#124 = PERSON_AND_ORGANIZATION_ROLE ( 'classification_officer' ) ;
#125 = EDGE_LOOP ( 'NONE', ( #229 ) ) ;
#126 = ORIENTED_EDGE ( 'NONE', *, *, #148, .F. ) ;
#127 = PERSON ( 'UNSPECIFIED', 'UNSPECIFIED', 'UNSPECIFIED', ('UNSPECIFIED'), ('UNSPECIFIED'), ('UNSPECIFIED') ) ;
#128 = APPROVAL_ROLE ( '' ) ;
#129 = EDGE_LOOP ( 'NONE', ( #168 ) ) ;
#130 = EDGE_LOOP ( 'NONE', ( #120 ) ) ;
#131 = AXIS2_PLACEMENT_3D ( 'NONE', #204, #44, #339 ) ;
#132 = DIRECTION ( 'NONE',  ( 0.0000000000000000000, 1.000000000000000000, 0.0000000000000000000 ) ) ;
#133 = CARTESIAN_POINT ( 'NONE',  ( 2.762023735831416461E-14, 1.959999999999998632, 7.910750388677674216 ) ) ;
#134 = DIRECTION ( 'NONE',  ( 0.0000000000000000000, -1.000000000000000000, 0.0000000000000000000 ) ) ;
#135 = PLANE ( 'NONE',  #343 ) ;
#136 = AXIS2_PLACEMENT_3D ( 'NONE', #13, #89, #290 ) ;
#137 = CARTESIAN_POINT ( 'NONE',  ( 0.0000000000000000000, 0.0000000000000000000, 0.0000000000000000000 ) ) ;
#138 = APPROVAL_PERSON_ORGANIZATION ( #60, #264, #128 ) ;
#139 = CARTESIAN_POINT ( 'NONE',  ( 6.284666409917640040E-15, 4.499279347985568718E-33, 1.800000000000000044 ) ) ;
#140 =( LENGTH_UNIT ( ) NAMED_UNIT ( * ) SI_UNIT ( .MILLI., .METRE. ) );
#141 = AXIS2_PLACEMENT_3D ( 'NONE', #137, #245, #106 ) ;
#142 = ORIENTED_EDGE ( 'NONE', *, *, #187, .F. ) ;
#143 = EDGE_LOOP ( 'NONE', ( #196 ) ) ;
#144 = DIRECTION ( 'NONE',  ( 4.275831445896958607E-31, 1.000000000000000000, 1.224646799147353207E-16 ) ) ;
#145 = CALENDAR_DATE ( 2021, 13, 12 ) ;
#146 = FACE_OUTER_BOUND ( 'NONE', #336, .T. ) ;
#147 = DIRECTION ( 'NONE',  ( -3.491481338843133355E-15, 1.224646799147353207E-16, -1.000000000000000000 ) ) ;
#148 = EDGE_CURVE ( 'NONE', #342, #342, #20, .T. ) ;
#149 = DIRECTION ( 'NONE',  ( -4.275831445896958607E-31, -1.000000000000000000, -1.224646799147353207E-16 ) ) ;
#150 = CIRCLE ( 'NONE', #232, 0.5999999999999998668 ) ;
#151 = AXIS2_PLACEMENT_3D ( 'NONE', #297, #71, #134 ) ;
#152 = CARTESIAN_POINT ( 'NONE',  ( 1.312796983405018142E-13, -4.604671964794046935E-15, 37.59999999999999432 ) ) ;
#153 = APPROVAL_STATUS ( 'not_yet_approved' ) ;
#154 = PERSON_AND_ORGANIZATION ( #127, #75 ) ;
#155 = CLOSED_SHELL ( 'NONE', ( #310, #292, #161, #338, #105, #176, #7, #215, #298, #261, #50 ) ) ;
#156 = DIRECTION ( 'NONE',  ( 3.491481338843133355E-15, -1.224646799147353207E-16, 1.000000000000000000 ) ) ;
#157 = VERTEX_POINT ( 'NONE', #221 ) ;
#158 = AXIS2_PLACEMENT_3D ( 'NONE', #66, #178, #132 ) ;
#159 = DIRECTION ( 'NONE',  ( -3.491481338843133355E-15, 1.224646799147353207E-16, -1.000000000000000000 ) ) ;
#160 = ORIENTED_EDGE ( 'NONE', *, *, #187, .T. ) ;
#161 = ADVANCED_FACE ( 'NONE', ( #146, #307 ), #190, .F. ) ;
#162 = CYLINDRICAL_SURFACE ( 'NONE', #141, 0.5999999999999998668 ) ;
#163 = PERSON_AND_ORGANIZATION ( #127, #75 ) ;
#164 = ORIENTED_EDGE ( 'NONE', *, *, #55, .F. ) ;
#165 = CARTESIAN_POINT ( 'NONE',  ( 6.284666409917640040E-15, 4.499279347985568718E-33, 1.800000000000000044 ) ) ;
#166 = AXIS2_PLACEMENT_3D ( 'NONE', #152, #313, #317 ) ;
#167 = LOCAL_TIME ( 14, 56, 4.000000000000000000, #179 ) ;
#168 = ORIENTED_EDGE ( 'NONE', *, *, #95, .F. ) ;
#169 = DIRECTION ( 'NONE',  ( 0.0000000000000000000, 1.000000000000000000, 0.0000000000000000000 ) ) ;
#170 = DATE_AND_TIME ( #327, #30 ) ;
#171 = APPLICATION_PROTOCOL_DEFINITION ( 'international standard', 'config_control_design', 1994, #16 ) ;
#172 = CIRCLE ( 'NONE', #191, 1.959999999999999520 ) ;
#173 = AXIS2_PLACEMENT_3D ( 'NONE', #325, #33, #6 ) ;
#174 = DIRECTION ( 'NONE',  ( -4.275831445896958607E-31, -1.000000000000000000, -1.224646799147353207E-16 ) ) ;
#175 = CARTESIAN_POINT ( 'NONE',  ( 6.284666409917640040E-15, -2.204364238465235576E-16, 1.800000000000000044 ) ) ;
#176 = ADVANCED_FACE ( 'NONE', ( #258, #239 ), #73, .T. ) ;
#177 = DIRECTION ( 'NONE',  ( -3.491481338843133355E-15, 1.224646799147353207E-16, -1.000000000000000000 ) ) ;
#178 = DIRECTION ( 'NONE',  ( -3.491481338843133355E-15, 1.224646799147353207E-16, -1.000000000000000000 ) ) ;
#179 = COORDINATED_UNIVERSAL_TIME_OFFSET ( 1, 0, .AHEAD. ) ;
#180 = DIRECTION ( 'NONE',  ( 3.491481338843133355E-15, -1.224646799147353207E-16, 1.000000000000000000 ) ) ;
#181 = APPROVAL_PERSON_ORGANIZATION ( #56, #316, #32 ) ;
#182 = PERSON_AND_ORGANIZATION ( #127, #75 ) ;
#183 = DIRECTION ( 'NONE',  ( 3.491481338843133355E-15, -1.224646799147353207E-16, 1.000000000000000000 ) ) ;
#184 = VERTEX_POINT ( 'NONE', #133 ) ;
#185 = FACE_OUTER_BOUND ( 'NONE', #203, .T. ) ;
#186 = VERTEX_POINT ( 'NONE', #23 ) ;
#187 = EDGE_CURVE ( 'NONE', #76, #76, #251, .T. ) ;
#188 = CARTESIAN_POINT ( 'NONE',  ( 2.137183397710479182E-32, 0.5999999999999996447, 6.121136532892404794E-18 ) ) ;
#189 = FACE_OUTER_BOUND ( 'NONE', #81, .T. ) ;
#190 = TOROIDAL_SURFACE ( 'NONE', #136, 2.600000000000000533, 2.000000000000000000 ) ;
#191 = AXIS2_PLACEMENT_3D ( 'NONE', #334, #57, #9 ) ;
#192 = FACE_OUTER_BOUND ( 'NONE', #250, .T. ) ;
#193 = CC_DESIGN_DATE_AND_TIME_ASSIGNMENT ( #287, #210, ( #24 ) ) ;
#194 = PRODUCT_RELATED_PRODUCT_CATEGORY ( 'detail', '', ( #198 ) ) ;
#195 = ORIENTED_EDGE ( 'NONE', *, *, #113, .T. ) ;
#196 = ORIENTED_EDGE ( 'NONE', *, *, #271, .F. ) ;
#197 = PLANE ( 'NONE',  #94 ) ;
#198 = PRODUCT ( '381937', '381937', '', ( #110 ) ) ;
#199 = COORDINATED_UNIVERSAL_TIME_OFFSET ( 1, 0, .AHEAD. ) ;
#200 = AXIS2_PLACEMENT_3D ( 'NONE', #247, #4, #108 ) ;
#201 = APPROVAL_PERSON_ORGANIZATION ( #58, #72, #202 ) ;
#202 = APPROVAL_ROLE ( '' ) ;
#203 = EDGE_LOOP ( 'NONE', ( #333 ) ) ;
#204 = CARTESIAN_POINT ( 'NONE',  ( -2.351780527767125861E-31, 8.248935669756079182E-33, -6.735767141594874819E-17 ) ) ;
#205 = APPROVAL_DATE_TIME ( #305, #264 ) ;
#206 = AXIS2_PLACEMENT_3D ( 'NONE', #234, #147, #231 ) ;
#207 = ORIENTED_EDGE ( 'NONE', *, *, #36, .F. ) ;
#208 = DATE_AND_TIME ( #64, #279 ) ;
#209 = DIRECTION ( 'NONE',  ( 0.0000000000000000000, -1.000000000000000000, 0.0000000000000000000 ) ) ;
#210 = DATE_TIME_ROLE ( 'creation_date' ) ;
#211 = DESIGN_CONTEXT ( 'detailed design', #266, 'design' ) ;
#212 = DIRECTION ( 'NONE',  ( -3.491481338843133355E-15, 1.224646799147353207E-16, -1.000000000000000000 ) ) ;
#213 = VERTEX_POINT ( 'NONE', #1 ) ;
#214 = FACE_OUTER_BOUND ( 'NONE', #125, .T. ) ;
#215 = ADVANCED_FACE ( 'NONE', ( #238, #185 ), #135, .F. ) ;
#216 = CIRCLE ( 'NONE', #223, 0.5999999999999999778 ) ;
#217 = SECURITY_CLASSIFICATION ( '', '', #45 ) ;
#218 = DIRECTION ( 'NONE',  ( 4.275831445896958607E-31, 1.000000000000000000, 1.224646799147353207E-16 ) ) ;
#219 = CARTESIAN_POINT ( 'NONE',  ( 1.192628359376436333E-14, 0.6437047985323820498, 3.415823381635491263 ) ) ;
#220 = EDGE_LOOP ( 'NONE', ( #114 ) ) ;
#221 = CARTESIAN_POINT ( 'NONE',  ( 1.326762908760390423E-13, 1.599999999999991873, 38.00000000000000000 ) ) ;
#222 = EDGE_LOOP ( 'NONE', ( #126 ) ) ;
#223 = AXIS2_PLACEMENT_3D ( 'NONE', #67, #10, #122 ) ;
#224 = ORIENTED_EDGE ( 'NONE', *, *, #36, .T. ) ;
#225 = FACE_OUTER_BOUND ( 'NONE', #69, .T. ) ;
#226 = APPROVAL_STATUS ( 'not_yet_approved' ) ;
#227 = DIRECTION ( 'NONE',  ( -3.491481338843133355E-15, 1.224646799147353207E-16, -1.000000000000000000 ) ) ;
#228 = EDGE_LOOP ( 'NONE', ( #195 ) ) ;
#229 = ORIENTED_EDGE ( 'NONE', *, *, #118, .T. ) ;
#230 = COORDINATED_UNIVERSAL_TIME_OFFSET ( 1, 0, .AHEAD. ) ;
#231 = DIRECTION ( 'NONE',  ( 0.0000000000000000000, 1.000000000000000000, 0.0000000000000000000 ) ) ;
#232 = AXIS2_PLACEMENT_3D ( 'NONE', #175, #123, #169 ) ;
#233 = LOCAL_TIME ( 14, 56, 4.000000000000000000, #230 ) ;
#234 = CARTESIAN_POINT ( 'NONE',  ( 6.284666409917640040E-15, -2.204364238465235576E-16, 1.800000000000000044 ) ) ;
#235 = EDGE_LOOP ( 'NONE', ( #164 ) ) ;
#236 = CARTESIAN_POINT ( 'NONE',  ( 0.0000000000000000000, 0.0000000000000000000, 0.0000000000000000000 ) ) ;
#237 = CC_DESIGN_PERSON_AND_ORGANIZATION_ASSIGNMENT ( #154, #124, ( #217 ) ) ;
#238 = FACE_BOUND ( 'NONE', #260, .T. ) ;
#239 = FACE_OUTER_BOUND ( 'NONE', #228, .T. ) ;
#240 = LOCAL_TIME ( 14, 56, 4.000000000000000000, #93 ) ;
#241 = ORIENTED_EDGE ( 'NONE', *, *, #65, .T. ) ;
#242 = ADVANCED_FACE ( 'NONE', ( #99, #214 ), #15, .T. ) ;
#243 = FACE_OUTER_BOUND ( 'NONE', #87, .T. ) ;
#244 = CARTESIAN_POINT ( 'NONE',  ( 6.284666409917640040E-15, 0.5999999999999996447, 1.800000000000000044 ) ) ;
#245 = DIRECTION ( 'NONE',  ( -3.491481338843133355E-15, 1.224646799147353207E-16, -1.000000000000000000 ) ) ;
#246 = DIRECTION ( 'NONE',  ( 3.491481338843133355E-15, -1.224646799147353207E-16, 1.000000000000000000 ) ) ;
#247 = CARTESIAN_POINT ( 'NONE',  ( 1.431507348925684676E-14, -5.021051876504148371E-16, 4.100000000000000533 ) ) ;
#248 = DIRECTION ( 'NONE',  ( -4.275831445896958607E-31, -1.000000000000000000, -1.224646799147353207E-16 ) ) ;
#249 = COORDINATED_UNIVERSAL_TIME_OFFSET ( 1, 0, .AHEAD. ) ;
#250 = EDGE_LOOP ( 'NONE', ( #90 ) ) ;
#251 = CIRCLE ( 'NONE', #166, 1.999999999999997113 ) ;
#252 = CARTESIAN_POINT ( 'NONE',  ( 1.431507348925684360E-14, 1.454115364633275866E-32, 4.099999999999999645 ) ) ;
#253 = EDGE_LOOP ( 'NONE', ( #102 ) ) ;
#254 = CC_DESIGN_PERSON_AND_ORGANIZATION_ASSIGNMENT ( #18, #308, ( #24 ) ) ;
#255 = DIRECTION ( 'NONE',  ( 4.275831445896958607E-31, 1.000000000000000000, 1.224646799147353207E-16 ) ) ;
#256 = CARTESIAN_POINT ( 'NONE',  ( 3.316907271900976056E-14, -1.163414459189985485E-15, 9.500000000000000000 ) ) ;
#257 = FACE_OUTER_BOUND ( 'NONE', #253, .T. ) ;
#258 = FACE_BOUND ( 'NONE', #143, .T. ) ;
#259 = CLOSED_SHELL ( 'NONE', ( #3, #242, #332 ) ) ;
#260 = EDGE_LOOP ( 'NONE', ( #276 ) ) ;
#261 = ADVANCED_FACE ( 'NONE', ( #92, #337 ), #80, .T. ) ;
#262 = PRODUCT_DEFINITION_SHAPE ( 'NONE', 'NONE',  #24 ) ;
#263 = AXIS2_PLACEMENT_3D ( 'NONE', #84, #284, #37 ) ;
#264 = APPROVAL ( #153, 'UNSPECIFIED' ) ;
#265 = DIRECTION ( 'NONE',  ( 3.491481338843133355E-15, -1.224646799147353207E-16, 1.000000000000000000 ) ) ;
#266 = APPLICATION_CONTEXT ( 'configuration controlled 3d designs of mechanical parts and assemblies' ) ;
#267 = FACE_OUTER_BOUND ( 'NONE', #235, .T. ) ;
#268 = PERSON_AND_ORGANIZATION_ROLE ( 'design_owner' ) ;
#269 = EDGE_CURVE ( 'NONE', #2, #2, #278, .T. ) ;
#270 = AXIS2_PLACEMENT_3D ( 'NONE', #5, #77, #103 ) ;
#271 = EDGE_CURVE ( 'NONE', #46, #46, #303, .T. ) ;
#272 = FACE_OUTER_BOUND ( 'NONE', #86, .T. ) ;
#273 =( NAMED_UNIT ( * ) SI_UNIT ( $, .STERADIAN. ) SOLID_ANGLE_UNIT ( ) );
#274 = ORIENTED_EDGE ( 'NONE', *, *, #118, .F. ) ;
#275 = DIRECTION ( 'NONE',  ( 0.0000000000000000000, 1.000000000000000000, 0.0000000000000000000 ) ) ;
#276 = ORIENTED_EDGE ( 'NONE', *, *, #65, .F. ) ;
#277 = EDGE_CURVE ( 'NONE', #157, #157, #47, .T. ) ;
#278 = CIRCLE ( 'NONE', #131, 0.5999999999999996447 ) ;
#279 = LOCAL_TIME ( 14, 56, 4.000000000000000000, #199 ) ;
#280 = APPROVAL_STATUS ( 'not_yet_approved' ) ;
#281 = DIRECTION ( 'NONE',  ( 3.491481338843133355E-15, -1.224646799147353207E-16, 1.000000000000000000 ) ) ;
#282 = FACE_OUTER_BOUND ( 'NONE', #322, .T. ) ;
#283 = DATE_TIME_ROLE ( 'classification_date' ) ;
#284 = DIRECTION ( 'NONE',  ( -3.491481338843133355E-15, 1.224646799147353207E-16, -1.000000000000000000 ) ) ;
#285 = FACE_OUTER_BOUND ( 'NONE', #130, .T. ) ;
#286 = EDGE_LOOP ( 'NONE', ( #27 ) ) ;
#287 = DATE_AND_TIME ( #312, #167 ) ;
#288 = AXIS2_PLACEMENT_3D ( 'NONE', #165, #265, #321 ) ;
#289 = FACE_OUTER_BOUND ( 'NONE', #300, .T. ) ;
#290 = DIRECTION ( 'NONE',  ( 4.333560346773609638E-31, 1.000000000000000000, 1.224646799147353207E-16 ) ) ;
#291 = PERSON_AND_ORGANIZATION_ROLE ( 'design_supplier' ) ;
#292 = ADVANCED_FACE ( 'NONE', ( #189, #192 ), #162, .T. ) ;
#293 = VERTEX_POINT ( 'NONE', #100 ) ;
#294 = CC_DESIGN_APPROVAL ( #264, ( #22 ) ) ;
#295 = CARTESIAN_POINT ( 'NONE',  ( 0.0000000000000000000, 0.0000000000000000000, 0.0000000000000000000 ) ) ;
#296 = CC_DESIGN_PERSON_AND_ORGANIZATION_ASSIGNMENT ( #182, #291, ( #22 ) ) ;
#297 = CARTESIAN_POINT ( 'NONE',  ( 1.431507348925684360E-14, -5.021051876504147385E-16, 4.099999999999999645 ) ) ;
#298 = ADVANCED_FACE ( 'NONE', ( #267, #299 ), #53, .T. ) ;
#299 = FACE_OUTER_BOUND ( 'NONE', #14, .T. ) ;
#300 = EDGE_LOOP ( 'NONE', ( #241 ) ) ;
#301 = AXIS2_PLACEMENT_3D ( 'NONE', #252, #281, #149 ) ;
#302 = CARTESIAN_POINT ( 'NONE',  ( 1.431507348925684360E-14, -5.021051876504147385E-16, 4.099999999999999645 ) ) ;
#303 = CIRCLE ( 'NONE', #200, 1.150000000000000133 ) ;
#304 =( GEOMETRIC_REPRESENTATION_CONTEXT ( 3 ) GLOBAL_UNCERTAINTY_ASSIGNED_CONTEXT ( ( #309 ) ) GLOBAL_UNIT_ASSIGNED_CONTEXT ( ( #140, #79, #273 ) ) REPRESENTATION_CONTEXT ( 'NONE', 'WORKASPACE' ) );
#305 = DATE_AND_TIME ( #12, #240 ) ;
#306 = APPROVAL_DATE_TIME ( #91, #72 ) ;
#307 = FACE_OUTER_BOUND ( 'NONE', #286, .T. ) ;
#308 = PERSON_AND_ORGANIZATION_ROLE ( 'creator' ) ;
#309 = UNCERTAINTY_MEASURE_WITH_UNIT (LENGTH_MEASURE( 1.000000000000000082E-05 ), #140, 'distance_accuracy_value', 'NONE');
#310 = ADVANCED_FACE ( 'NONE', ( #225 ), #326, .F. ) ;
#311 = DIRECTION ( 'NONE',  ( 0.0000000000000000000, 1.000000000000000000, 0.0000000000000000000 ) ) ;
#312 = CALENDAR_DATE ( 2021, 13, 12 ) ;
#313 = DIRECTION ( 'NONE',  ( -3.491481338843133355E-15, 1.224646799147353207E-16, -1.000000000000000000 ) ) ;
#314 = PERSON_AND_ORGANIZATION ( #127, #75 ) ;
#315 = CIRCLE ( 'NONE', #323, 0.7891310281069555677 ) ;
#316 = APPROVAL ( #226, 'UNSPECIFIED' ) ;
#317 = DIRECTION ( 'NONE',  ( 0.0000000000000000000, 1.000000000000000000, 0.0000000000000000000 ) ) ;
#318 = AXIS2_PLACEMENT_3D ( 'NONE', #42, #156, #209 ) ;
#319 = FACE_BOUND ( 'NONE', #222, .T. ) ;
#320 = VERTEX_POINT ( 'NONE', #49 ) ;
#321 = DIRECTION ( 'NONE',  ( -4.275831445896958607E-31, -1.000000000000000000, -1.224646799147353207E-16 ) ) ;
#322 = EDGE_LOOP ( 'NONE', ( #40 ) ) ;
#323 = AXIS2_PLACEMENT_3D ( 'NONE', #302, #177, #311 ) ;
#324 = CC_DESIGN_SECURITY_CLASSIFICATION ( #217, ( #22 ) ) ;
#325 = CARTESIAN_POINT ( 'NONE',  ( 0.0000000000000000000, 0.0000000000000000000, 0.0000000000000000000 ) ) ;
#326 = PLANE ( 'NONE',  #288 ) ;
#327 = CALENDAR_DATE ( 2021, 13, 12 ) ;
#328 = AXIS2_PLACEMENT_3D ( 'NONE', #139, #246, #248 ) ;
#329 = FACE_BOUND ( 'NONE', #129, .T. ) ;
#330 = EDGE_LOOP ( 'NONE', ( #19 ) ) ;
#331 = CC_DESIGN_APPROVAL ( #72, ( #217 ) ) ;
#332 = ADVANCED_FACE ( 'NONE', ( #272 ), #31, .T. ) ;
#333 = ORIENTED_EDGE ( 'NONE', *, *, #55, .T. ) ;
#334 = CARTESIAN_POINT ( 'NONE',  ( 2.762023735831416461E-14, -9.687875142347794459E-16, 7.910750388677674216 ) ) ;
#335 = CARTESIAN_POINT ( 'NONE',  ( 1.326762908760390423E-13, 1.199807826129476644E-32, 38.00000000000000000 ) ) ;
#336 = EDGE_LOOP ( 'NONE', ( #119 ) ) ;
#337 = FACE_BOUND ( 'NONE', #330, .T. ) ;
#338 = ADVANCED_FACE ( 'NONE', ( #319, #243 ), #26, .T. ) ;
#339 = DIRECTION ( 'NONE',  ( 4.275831445896958607E-31, 1.000000000000000000, 1.224646799147353207E-16 ) ) ;
#340 = AXIS2_PLACEMENT_3D ( 'NONE', #335, #212, #144 ) ;
#341 = CARTESIAN_POINT ( 'NONE',  ( 3.316907271900976056E-14, 2.969524369670473466E-32, 9.500000000000000000 ) ) ;
#342 = VERTEX_POINT ( 'NONE', #219 ) ;
#343 = AXIS2_PLACEMENT_3D ( 'NONE', #341, #183, #48 ) ;
ENDSEC;
END-ISO-10303-21;
