ISO-10303-21;
HEADER;
FILE_DESCRIPTION (( 'STEP AP203' ),
    '1' );
FILE_NAME ('381936.step',
    '2021-12-13T13:56:03',
    ( '' ),
    ( '' ),
    'SwSTEP 2.0',
    'SolidWorks 2019',
    '' );
FILE_SCHEMA (( 'CONFIG_CONTROL_DESIGN' ));
ENDSEC;

DATA;
#1 = CALENDAR_DATE ( 2021, 13, 12 ) ;
#2 = ADVANCED_FACE ( 'NONE', ( #64, #148 ), #300, .T. ) ;
#3 = LOCAL_TIME ( 14, 56, 3.000000000000000000, #22 ) ;
#4 = EDGE_CURVE ( 'NONE', #186, #186, #151, .T. ) ;
#5 = AXIS2_PLACEMENT_3D ( 'NONE', #135, #204, #105 ) ;
#6 = EDGE_LOOP ( 'NONE', ( #78 ) ) ;
#7 = DIRECTION ( 'NONE',  ( 3.491481338843133355E-15, -1.222263747179845960E-16, 1.000000000000000000 ) ) ;
#8 = EDGE_LOOP ( 'NONE', ( #173 ) ) ;
#9 = FACE_OUTER_BOUND ( 'NONE', #265, .T. ) ;
#10 = EDGE_LOOP ( 'NONE', ( #37 ) ) ;
#11 = CIRCLE ( 'NONE', #137, 0.5656865167015571183 ) ;
#12 = DIRECTION ( 'NONE',  ( 0.0000000000000000000, 1.000000000000000000, 0.0000000000000000000 ) ) ;
#13 = EDGE_CURVE ( 'NONE', #61, #61, #71, .T. ) ;
#14 = EDGE_LOOP ( 'NONE', ( #238 ) ) ;
#15 = CARTESIAN_POINT ( 'NONE',  ( 1.326762908760390423E-13, -4.653657836759941941E-15, 38.00000000000000000 ) ) ;
#16 = PERSON_AND_ORGANIZATION ( #317, #308 ) ;
#17 = EDGE_LOOP ( 'NONE', ( #75 ) ) ;
#18 = CYLINDRICAL_SURFACE ( 'NONE', #194, 0.5499999999999998224 ) ;
#19 = CALENDAR_DATE ( 2021, 13, 12 ) ;
#20 = SECURITY_CLASSIFICATION_LEVEL ( 'unclassified' ) ;
#21 = ADVANCED_FACE ( 'NONE', ( #258, #72 ), #255, .F. ) ;
#22 = COORDINATED_UNIVERSAL_TIME_OFFSET ( 1, 0, .AHEAD. ) ;
#23 = ORIENTED_EDGE ( 'NONE', *, *, #65, .T. ) ;
#24 = CC_DESIGN_PERSON_AND_ORGANIZATION_ASSIGNMENT ( #116, #220, ( #50 ) ) ;
#25 = CC_DESIGN_APPROVAL ( #273, ( #44 ) ) ;
#26 = ORIENTED_EDGE ( 'NONE', *, *, #235, .T. ) ;
#27 = ORIENTED_EDGE ( 'NONE', *, *, #13, .F. ) ;
#28 = CYLINDRICAL_SURFACE ( 'NONE', #157, 1.999999999999996669 ) ;
#29 = LOCAL_TIME ( 14, 56, 3.000000000000000000, #320 ) ;
#30 = EDGE_CURVE ( 'NONE', #162, #162, #266, .T. ) ;
#31 = APPLICATION_CONTEXT ( 'configuration controlled 3d designs of mechanical parts and assemblies' ) ;
#32 = CLOSED_SHELL ( 'NONE', ( #2, #147, #21, #93, #319, #49, #209, #219, #171, #312 ) ) ;
#33 = AXIS2_PLACEMENT_3D ( 'NONE', #104, #36, #205 ) ;
#34 = CARTESIAN_POINT ( 'NONE',  ( 3.316907271900976056E-14, 1.999999999999995337, 9.500000000000000000 ) ) ;
#35 = FACE_OUTER_BOUND ( 'NONE', #14, .T. ) ;
#36 = DIRECTION ( 'NONE',  ( -3.491481338843133355E-15, 1.224646799147353207E-16, -1.000000000000000000 ) ) ;
#37 = ORIENTED_EDGE ( 'NONE', *, *, #201, .F. ) ;
#38 = DIRECTION ( 'NONE',  ( 4.267511064422913880E-31, 1.000000000000000000, 1.222263747179845960E-16 ) ) ;
#39 = DIRECTION ( 'NONE',  ( 3.491481338843133355E-15, -1.222263747179845960E-16, 1.000000000000000000 ) ) ;
#40 = AXIS2_PLACEMENT_3D ( 'NONE', #85, #179, #133 ) ;
#41 = CARTESIAN_POINT ( 'NONE',  ( 5.935518276033326704E-15, -0.5500000000000001554, 1.700000000000000178 ) ) ;
#42 = ORIENTED_EDGE ( 'NONE', *, *, #289, .T. ) ;
#43 = CARTESIAN_POINT ( 'NONE',  ( 5.935518276033325915E-15, 0.5499999999999997113, 1.699999999999999956 ) ) ;
#44 = PRODUCT_DEFINITION ( 'UNKNOWN', '', #70, #286 ) ;
#45 = DIRECTION ( 'NONE',  ( 3.491481338843133355E-15, -1.222263747179845960E-16, 1.000000000000000000 ) ) ;
#46 = APPROVAL_STATUS ( 'not_yet_approved' ) ;
#47 = CALENDAR_DATE ( 2021, 13, 12 ) ;
#48 = VERTEX_POINT ( 'NONE', #218 ) ;
#49 = ADVANCED_FACE ( 'NONE', ( #109, #60 ), #261, .F. ) ;
#50 = SECURITY_CLASSIFICATION ( '', '', #20 ) ;
#51 = ADVANCED_FACE ( 'NONE', ( #231 ), #163, .T. ) ;
#52 = AXIS2_PLACEMENT_3D ( 'NONE', #89, #69, #318 ) ;
#53 = PRODUCT_DEFINITION_SHAPE ( 'NONE', 'NONE',  #44 ) ;
#54 = EDGE_LOOP ( 'NONE', ( #154 ) ) ;
#55 = DIRECTION ( 'NONE',  ( 0.0000000000000000000, -1.000000000000000000, 0.0000000000000000000 ) ) ;
#56 = ADVANCED_FACE ( 'NONE', ( #211 ), #311, .F. ) ;
#57 = APPLICATION_PROTOCOL_DEFINITION ( 'international standard', 'config_control_design', 1994, #127 ) ;
#58 = EDGE_LOOP ( 'NONE', ( #210 ) ) ;
#59 = CARTESIAN_POINT ( 'NONE',  ( 1.326762908760390423E-13, -4.653657836759941941E-15, 38.00000000000000000 ) ) ;
#60 = FACE_BOUND ( 'NONE', #307, .T. ) ;
#61 = VERTEX_POINT ( 'NONE', #293 ) ;
#62 = DIRECTION ( 'NONE',  ( 0.0000000000000000000, -1.000000000000000000, 0.0000000000000000000 ) ) ;
#63 = APPROVAL_STATUS ( 'not_yet_approved' ) ;
#64 = FACE_OUTER_BOUND ( 'NONE', #58, .T. ) ;
#65 = EDGE_CURVE ( 'NONE', #138, #138, #118, .T. ) ;
#66 = DATE_TIME_ROLE ( 'creation_date' ) ;
#67 = AXIS2_PLACEMENT_3D ( 'NONE', #98, #267, #233 ) ;
#68 = COORDINATED_UNIVERSAL_TIME_OFFSET ( 1, 0, .AHEAD. ) ;
#69 = DIRECTION ( 'NONE',  ( 0.0000000000000000000, 0.0000000000000000000, 1.000000000000000000 ) ) ;
#70 = PRODUCT_DEFINITION_FORMATION_WITH_SPECIFIED_SOURCE ( 'ANY', '', #103, .NOT_KNOWN. ) ;
#71 = CIRCLE ( 'NONE', #302, 1.959999999999999964 ) ;
#72 = FACE_BOUND ( 'NONE', #199, .T. ) ;
#73 = CC_DESIGN_APPROVAL ( #284, ( #70 ) ) ;
#74 = CARTESIAN_POINT ( 'NONE',  ( 1.312796983405018142E-13, -4.604767286872747678E-15, 37.59999999999999432 ) ) ;
#75 = ORIENTED_EDGE ( 'NONE', *, *, #190, .F. ) ;
#76 = PLANE ( 'NONE',  #241 ) ;
#77 = DIRECTION ( 'NONE',  ( 0.0000000000000000000, -1.000000000000000000, 0.0000000000000000000 ) ) ;
#78 = ORIENTED_EDGE ( 'NONE', *, *, #254, .F. ) ;
#79 = DIRECTION ( 'NONE',  ( 3.491481338843133355E-15, -1.224646799147353207E-16, 1.000000000000000000 ) ) ;
#80 = CC_DESIGN_APPROVAL ( #243, ( #50 ) ) ;
#81 = EDGE_LOOP ( 'NONE', ( #234 ) ) ;
#82 = FACE_BOUND ( 'NONE', #10, .T. ) ;
#83 = FACE_OUTER_BOUND ( 'NONE', #176, .T. ) ;
#84 = CARTESIAN_POINT ( 'NONE',  ( 1.312796983405018142E-13, -4.604767286872747678E-15, 37.59999999999999432 ) ) ;
#85 = CARTESIAN_POINT ( 'NONE',  ( -1.068994477736138921E-31, 3.749527889212575189E-33, -3.061721871010599170E-17 ) ) ;
#86 = CARTESIAN_POINT ( 'NONE',  ( 1.047444401652940953E-14, -0.8350000000000000755, 3.000000000000002665 ) ) ;
#87 = AXIS2_PLACEMENT_3D ( 'NONE', #187, #283, #285 ) ;
#88 = VERTEX_POINT ( 'NONE', #140 ) ;
#89 = CARTESIAN_POINT ( 'NONE',  ( 0.0000000000000000000, 0.0000000000000000000, 0.0000000000000000000 ) ) ;
#90 = PERSON_AND_ORGANIZATION ( #317, #308 ) ;
#91 = DIRECTION ( 'NONE',  ( 3.491481338843133355E-15, -1.222263747179845960E-16, 1.000000000000000000 ) ) ;
#92 = DIRECTION ( 'NONE',  ( 0.0000000000000000000, -1.000000000000000000, 0.0000000000000000000 ) ) ;
#93 = ADVANCED_FACE ( 'NONE', ( #9, #177 ), #228, .T. ) ;
#94 = DIRECTION ( 'NONE',  ( -4.267511064422913880E-31, -1.000000000000000000, -1.222263747179845960E-16 ) ) ;
#95 = DIRECTION ( 'NONE',  ( 0.0000000000000000000, -1.000000000000000000, 0.0000000000000000000 ) ) ;
#96 = EDGE_CURVE ( 'NONE', #212, #212, #203, .T. ) ;
#97 = DIRECTION ( 'NONE',  ( 0.0000000000000000000, -1.000000000000000000, 0.0000000000000000000 ) ) ;
#98 = CARTESIAN_POINT ( 'NONE',  ( 3.316907271900976688E-14, -1.170206157297381115E-15, 9.500000000000001776 ) ) ;
#99 = AXIS2_PLACEMENT_3D ( 'NONE', #130, #264, #62 ) ;
#100 = DIRECTION ( 'NONE',  ( -4.275831445896958607E-31, -1.000000000000000000, -1.224646799147353207E-16 ) ) ;
#101 = EDGE_LOOP ( 'NONE', ( #256 ) ) ;
#102 = CC_DESIGN_PERSON_AND_ORGANIZATION_ASSIGNMENT ( #182, #250, ( #70 ) ) ;
#103 = PRODUCT ( '381936', '381936', '', ( #188 ) ) ;
#104 = CARTESIAN_POINT ( 'NONE',  ( 5.935518276033325915E-15, -2.081899558550500280E-16, 1.699999999999999956 ) ) ;
#105 = DIRECTION ( 'NONE',  ( 0.0000000000000000000, -1.000000000000000000, 0.0000000000000000000 ) ) ;
#106 = FACE_OUTER_BOUND ( 'NONE', #232, .T. ) ;
#107 = DIRECTION ( 'NONE',  ( -4.267511064422913880E-31, -1.000000000000000000, -1.222263747179845960E-16 ) ) ;
#108 = MANIFOLD_SOLID_BREP ( 'Corps-Déplacer/Copier4[2]', #297 ) ;
#109 = FACE_OUTER_BOUND ( 'NONE', #101, .T. ) ;
#110 = DATE_AND_TIME ( #296, #215 ) ;
#111 = ORIENTED_EDGE ( 'NONE', *, *, #4, .T. ) ;
#112 = LOCAL_TIME ( 14, 56, 3.000000000000000000, #323 ) ;
#113 = DIRECTION ( 'NONE',  ( 0.0000000000000000000, -1.000000000000000000, 0.0000000000000000000 ) ) ;
#114 = PERSON_AND_ORGANIZATION_ROLE ( 'design_owner' ) ;
#115 = FACE_OUTER_BOUND ( 'NONE', #185, .T. ) ;
#116 = PERSON_AND_ORGANIZATION ( #317, #308 ) ;
#117 =( NAMED_UNIT ( * ) PLANE_ANGLE_UNIT ( ) SI_UNIT ( $, .RADIAN. ) );
#118 = CIRCLE ( 'NONE', #164, 0.8349999999999998535 ) ;
#119 = SHAPE_DEFINITION_REPRESENTATION ( #53, #245 ) ;
#120 = PRODUCT_RELATED_PRODUCT_CATEGORY ( 'detail', '', ( #103 ) ) ;
#121 = DIRECTION ( 'NONE',  ( 3.491481338843133355E-15, -1.222263747179845960E-16, 1.000000000000000000 ) ) ;
#122 = CARTESIAN_POINT ( 'NONE',  ( 2.789689482689513687E-14, -9.856428937185491509E-16, 7.989988236952308753 ) ) ;
#123 = EDGE_LOOP ( 'NONE', ( #313 ) ) ;
#124 = ORIENTED_EDGE ( 'NONE', *, *, #201, .T. ) ;
#125 =( GEOMETRIC_REPRESENTATION_CONTEXT ( 3 ) GLOBAL_UNCERTAINTY_ASSIGNED_CONTEXT ( ( #270 ) ) GLOBAL_UNIT_ASSIGNED_CONTEXT ( ( #251, #117, #249 ) ) REPRESENTATION_CONTEXT ( 'NONE', 'WORKASPACE' ) );
#126 = CIRCLE ( 'NONE', #5, 1.599999999999996314 ) ;
#127 = APPLICATION_CONTEXT ( 'configuration controlled 3d designs of mechanical parts and assemblies' ) ;
#128 = ORIENTED_EDGE ( 'NONE', *, *, #190, .T. ) ;
#129 = DIRECTION ( 'NONE',  ( -3.491481338843133355E-15, 1.222263747179845960E-16, -1.000000000000000000 ) ) ;
#130 = CARTESIAN_POINT ( 'NONE',  ( 1.047444401652940953E-14, -3.757347216304816973E-16, 3.000000000000002665 ) ) ;
#131 = ORIENTED_EDGE ( 'NONE', *, *, #96, .T. ) ;
#132 = DIRECTION ( 'NONE',  ( -3.491481338843133355E-15, 1.222263747179845960E-16, -1.000000000000000000 ) ) ;
#133 = DIRECTION ( 'NONE',  ( -4.275831445896958607E-31, -1.000000000000000000, -1.224646799147353207E-16 ) ) ;
#134 = EDGE_LOOP ( 'NONE', ( #262 ) ) ;
#135 = CARTESIAN_POINT ( 'NONE',  ( 1.326762908760390423E-13, -4.653657836759941941E-15, 38.00000000000000000 ) ) ;
#136 = AXIS2_PLACEMENT_3D ( 'NONE', #149, #152, #278 ) ;
#137 = AXIS2_PLACEMENT_3D ( 'NONE', #290, #316, #113 ) ;
#138 = VERTEX_POINT ( 'NONE', #86 ) ;
#139 = EDGE_CURVE ( 'NONE', #146, #146, #183, .T. ) ;
#140 = CARTESIAN_POINT ( 'NONE',  ( 1.312796983405018142E-13, -2.000000000000001776, 37.59999999999999432 ) ) ;
#141 = COORDINATED_UNIVERSAL_TIME_OFFSET ( 1, 0, .AHEAD. ) ;
#142 = DIRECTION ( 'NONE',  ( 0.0000000000000000000, -1.000000000000000000, 0.0000000000000000000 ) ) ;
#143 = PERSON_AND_ORGANIZATION_ROLE ( 'creator' ) ;
#144 = VERTEX_POINT ( 'NONE', #189 ) ;
#145 = AXIS2_PLACEMENT_3D ( 'NONE', #84, #132, #12 ) ;
#146 = VERTEX_POINT ( 'NONE', #292 ) ;
#147 = ADVANCED_FACE ( 'NONE', ( #207, #106 ), #303, .F. ) ;
#148 = FACE_OUTER_BOUND ( 'NONE', #229, .T. ) ;
#149 = CARTESIAN_POINT ( 'NONE',  ( -2.137988955472277843E-31, 7.499055778425150378E-33, -6.123443742021198339E-17 ) ) ;
#150 = APPROVAL_PERSON_ORGANIZATION ( #277, #243, #172 ) ;
#151 = CIRCLE ( 'NONE', #136, 0.5499999999999997113 ) ;
#152 = DIRECTION ( 'NONE',  ( -3.491481338843133355E-15, 1.224646799147353207E-16, -1.000000000000000000 ) ) ;
#153 = FACE_OUTER_BOUND ( 'NONE', #178, .T. ) ;
#154 = ORIENTED_EDGE ( 'NONE', *, *, #289, .F. ) ;
#155 = DIRECTION ( 'NONE',  ( 3.491481338843133355E-15, -1.222263747179845960E-16, 1.000000000000000000 ) ) ;
#156 = AXIS2_PLACEMENT_3D ( 'NONE', #202, #121, #95 ) ;
#157 = AXIS2_PLACEMENT_3D ( 'NONE', #59, #239, #230 ) ;
#158 = ORIENTED_EDGE ( 'NONE', *, *, #13, .T. ) ;
#159 = DIRECTION ( 'NONE',  ( 3.491481338843133355E-15, -1.222263747179845960E-16, 1.000000000000000000 ) ) ;
#160 = ORIENTED_EDGE ( 'NONE', *, *, #30, .T. ) ;
#161 = CARTESIAN_POINT ( 'NONE',  ( 1.326762908760390423E-13, -4.653657836759941941E-15, 38.00000000000000000 ) ) ;
#162 = VERTEX_POINT ( 'NONE', #41 ) ;
#163 = PLANE ( 'NONE',  #322 ) ;
#164 = AXIS2_PLACEMENT_3D ( 'NONE', #306, #155, #77 ) ;
#165 = CARTESIAN_POINT ( 'NONE',  ( 0.0000000000000000000, 0.0000000000000000000, 0.0000000000000000000 ) ) ;
#166 = CC_DESIGN_PERSON_AND_ORGANIZATION_ASSIGNMENT ( #269, #298, ( #44 ) ) ;
#167 = FACE_OUTER_BOUND ( 'NONE', #17, .T. ) ;
#168 = APPROVAL_DATE_TIME ( #191, #273 ) ;
#169 = APPROVAL_DATE_TIME ( #315, #284 ) ;
#170 = DATE_TIME_ROLE ( 'classification_date' ) ;
#171 = ADVANCED_FACE ( 'NONE', ( #83 ), #76, .F. ) ;
#172 = APPROVAL_ROLE ( '' ) ;
#173 = ORIENTED_EDGE ( 'NONE', *, *, #139, .F. ) ;
#174 = DIRECTION ( 'NONE',  ( 3.491481338843133355E-15, -1.222263747179845960E-16, 1.000000000000000000 ) ) ;
#175 = DIRECTION ( 'NONE',  ( 3.491481338843133355E-15, -1.222263747179845960E-16, 1.000000000000000000 ) ) ;
#176 = EDGE_LOOP ( 'NONE', ( #124 ) ) ;
#177 = FACE_BOUND ( 'NONE', #282, .T. ) ;
#178 = EDGE_LOOP ( 'NONE', ( #259 ) ) ;
#179 = DIRECTION ( 'NONE',  ( 3.491481338843133355E-15, -1.224646799147353207E-16, 1.000000000000000000 ) ) ;
#180 = DIRECTION ( 'NONE',  ( 4.275831445896958607E-31, 1.000000000000000000, 1.224646799147353207E-16 ) ) ;
#181 = AXIS2_PLACEMENT_3D ( 'NONE', #236, #7, #310 ) ;
#182 = PERSON_AND_ORGANIZATION ( #317, #308 ) ;
#183 = CIRCLE ( 'NONE', #33, 0.5499999999999999334 ) ;
#184 = VERTEX_POINT ( 'NONE', #276 ) ;
#185 = EDGE_LOOP ( 'NONE', ( #158 ) ) ;
#186 = VERTEX_POINT ( 'NONE', #195 ) ;
#187 = CARTESIAN_POINT ( 'NONE',  ( 9.601573681818616727E-15, -4.336808689942017736E-16, 2.750000000000000000 ) ) ;
#188 = MECHANICAL_CONTEXT ( 'NONE', #127, 'mechanical' ) ;
#189 = CARTESIAN_POINT ( 'NONE',  ( 9.601573681818626193E-15, -0.5500000000000003775, 2.750000000000002665 ) ) ;
#190 = EDGE_CURVE ( 'NONE', #184, #184, #288, .T. ) ;
#191 = DATE_AND_TIME ( #47, #29 ) ;
#192 = FACE_OUTER_BOUND ( 'NONE', #81, .T. ) ;
#193 = AXIS2_PLACEMENT_3D ( 'NONE', #226, #175, #94 ) ;
#194 = AXIS2_PLACEMENT_3D ( 'NONE', #165, #321, #180 ) ;
#195 = CARTESIAN_POINT ( 'NONE',  ( 2.137183397710479182E-32, 0.5499999999999997113, 6.121136532892404794E-18 ) ) ;
#196 = APPROVAL_STATUS ( 'not_yet_approved' ) ;
#197 = EDGE_LOOP ( 'NONE', ( #111 ) ) ;
#198 = APPROVAL_DATE_TIME ( #252, #243 ) ;
#199 = EDGE_LOOP ( 'NONE', ( #42 ) ) ;
#200 = APPROVAL_PERSON_ORGANIZATION ( #16, #273, #272 ) ;
#201 = EDGE_CURVE ( 'NONE', #48, #48, #126, .T. ) ;
#202 = CARTESIAN_POINT ( 'NONE',  ( 5.935518276033326704E-15, -2.168404344971008868E-16, 1.700000000000000178 ) ) ;
#203 = CIRCLE ( 'NONE', #67, 1.999999999999996669 ) ;
#204 = DIRECTION ( 'NONE',  ( 3.491481338843133355E-15, -1.222263747179845960E-16, 1.000000000000000000 ) ) ;
#205 = DIRECTION ( 'NONE',  ( 0.0000000000000000000, 1.000000000000000000, 0.0000000000000000000 ) ) ;
#206 = EDGE_LOOP ( 'NONE', ( #131 ) ) ;
#207 = FACE_OUTER_BOUND ( 'NONE', #54, .T. ) ;
#208 = CC_DESIGN_SECURITY_CLASSIFICATION ( #50, ( #70 ) ) ;
#209 = ADVANCED_FACE ( 'NONE', ( #263, #305 ), #28, .T. ) ;
#210 = ORIENTED_EDGE ( 'NONE', *, *, #235, .F. ) ;
#211 = FACE_OUTER_BOUND ( 'NONE', #197, .T. ) ;
#212 = VERTEX_POINT ( 'NONE', #314 ) ;
#213 = APPROVAL_ROLE ( '' ) ;
#214 = DIRECTION ( 'NONE',  ( -4.267511064422913880E-31, -1.000000000000000000, -1.222263747179845960E-16 ) ) ;
#215 = LOCAL_TIME ( 14, 56, 3.000000000000000000, #68 ) ;
#216 = CARTESIAN_POINT ( 'NONE',  ( 1.326762908760390423E-13, -4.653657836759941941E-15, 38.00000000000000000 ) ) ;
#217 = APPLICATION_PROTOCOL_DEFINITION ( 'international standard', 'config_control_design', 1994, #31 ) ;
#218 = CARTESIAN_POINT ( 'NONE',  ( 1.326762908760390423E-13, -1.600000000000000977, 38.00000000000000000 ) ) ;
#219 = ADVANCED_FACE ( 'NONE', ( #82, #35 ), #253, .T. ) ;
#220 = PERSON_AND_ORGANIZATION_ROLE ( 'classification_officer' ) ;
#221 = AXIS2_PLACEMENT_3D ( 'NONE', #43, #91, #214 ) ;
#222 = MANIFOLD_SOLID_BREP ( 'Corps-Déplacer/Copier4[1]', #32 ) ;
#223 = CC_DESIGN_DATE_AND_TIME_ASSIGNMENT ( #291, #170, ( #50 ) ) ;
#224 = APPROVAL_PERSON_ORGANIZATION ( #248, #284, #213 ) ;
#225 = CIRCLE ( 'NONE', #271, 1.999999999999997113 ) ;
#226 = CARTESIAN_POINT ( 'NONE',  ( 1.047444401652940007E-14, 0.5656865167015566742, 3.000000000000000000 ) ) ;
#227 = CC_DESIGN_PERSON_AND_ORGANIZATION_ASSIGNMENT ( #90, #114, ( #103 ) ) ;
#228 = CONICAL_SURFACE ( 'NONE', #99, 0.8349999999999997424, 0.2217440814658728776 ) ;
#229 = EDGE_LOOP ( 'NONE', ( #160 ) ) ;
#230 = DIRECTION ( 'NONE',  ( 0.0000000000000000000, -1.000000000000000000, 0.0000000000000000000 ) ) ;
#231 = FACE_OUTER_BOUND ( 'NONE', #8, .T. ) ;
#232 = EDGE_LOOP ( 'NONE', ( #26 ) ) ;
#233 = DIRECTION ( 'NONE',  ( 0.0000000000000000000, -1.000000000000000000, 0.0000000000000000000 ) ) ;
#234 = ORIENTED_EDGE ( 'NONE', *, *, #30, .F. ) ;
#235 = EDGE_CURVE ( 'NONE', #144, #144, #247, .T. ) ;
#236 = CARTESIAN_POINT ( 'NONE',  ( 9.601573681818626193E-15, -3.451781279509849382E-16, 2.750000000000002665 ) ) ;
#237 = CARTESIAN_POINT ( 'NONE',  ( 5.935518276033325915E-15, 4.124339402320104316E-33, 1.699999999999999956 ) ) ;
#238 = ORIENTED_EDGE ( 'NONE', *, *, #254, .T. ) ;
#239 = DIRECTION ( 'NONE',  ( 3.491481338843133355E-15, -1.222263747179845960E-16, 1.000000000000000000 ) ) ;
#240 = AXIS2_PLACEMENT_3D ( 'NONE', #34, #309, #107 ) ;
#241 = AXIS2_PLACEMENT_3D ( 'NONE', #161, #129, #38 ) ;
#242 = DIRECTION ( 'NONE',  ( 0.0000000000000000000, -1.000000000000000000, 0.0000000000000000000 ) ) ;
#243 = APPROVAL ( #63, 'UNSPECIFIED' ) ;
#244 = VERTEX_POINT ( 'NONE', #294 ) ;
#245 = ADVANCED_BREP_SHAPE_REPRESENTATION ( '381936', ( #222, #108, #52 ), #125 ) ;
#246 = LOCAL_TIME ( 14, 56, 3.000000000000000000, #141 ) ;
#247 = CIRCLE ( 'NONE', #181, 0.5500000000000000444 ) ;
#248 = PERSON_AND_ORGANIZATION ( #317, #308 ) ;
#249 =( NAMED_UNIT ( * ) SI_UNIT ( $, .STERADIAN. ) SOLID_ANGLE_UNIT ( ) );
#250 = PERSON_AND_ORGANIZATION_ROLE ( 'design_supplier' ) ;
#251 =( LENGTH_UNIT ( ) NAMED_UNIT ( * ) SI_UNIT ( .MILLI., .METRE. ) );
#252 = DATE_AND_TIME ( #1, #3 ) ;
#253 = CONICAL_SURFACE ( 'NONE', #145, 1.999999999999997113, 0.7853981633974433940 ) ;
#254 = EDGE_CURVE ( 'NONE', #88, #88, #225, .T. ) ;
#255 = PLANE ( 'NONE',  #193 ) ;
#256 = ORIENTED_EDGE ( 'NONE', *, *, #96, .F. ) ;
#257 = FACE_OUTER_BOUND ( 'NONE', #134, .T. ) ;
#258 = FACE_OUTER_BOUND ( 'NONE', #123, .T. ) ;
#259 = ORIENTED_EDGE ( 'NONE', *, *, #4, .F. ) ;
#260 = CARTESIAN_POINT ( 'NONE',  ( 3.316907271900976688E-14, -1.170206157297381115E-15, 9.500000000000001776 ) ) ;
#261 = PLANE ( 'NONE',  #240 ) ;
#262 = ORIENTED_EDGE ( 'NONE', *, *, #139, .T. ) ;
#263 = FACE_OUTER_BOUND ( 'NONE', #6, .T. ) ;
#264 = DIRECTION ( 'NONE',  ( 3.491481338843133355E-15, -1.222263747179845960E-16, 1.000000000000000000 ) ) ;
#265 = EDGE_LOOP ( 'NONE', ( #27 ) ) ;
#266 = CIRCLE ( 'NONE', #156, 0.5499999999999999334 ) ;
#267 = DIRECTION ( 'NONE',  ( 3.491481338843133355E-15, -1.222263747179845960E-16, 1.000000000000000000 ) ) ;
#268 = PLANE ( 'NONE',  #221 ) ;
#269 = PERSON_AND_ORGANIZATION ( #317, #308 ) ;
#270 = UNCERTAINTY_MEASURE_WITH_UNIT (LENGTH_MEASURE( 1.000000000000000082E-05 ), #251, 'distance_accuracy_value', 'NONE');
#271 = AXIS2_PLACEMENT_3D ( 'NONE', #74, #287, #55 ) ;
#272 = APPROVAL_ROLE ( '' ) ;
#273 = APPROVAL ( #196, 'UNSPECIFIED' ) ;
#274 = CYLINDRICAL_SURFACE ( 'NONE', #304, 1.959999999999999964 ) ;
#275 = PERSON_AND_ORGANIZATION ( #317, #308 ) ;
#276 = CARTESIAN_POINT ( 'NONE',  ( 3.316907271900976688E-14, -1.960000000000001297, 9.500000000000001776 ) ) ;
#277 = PERSON_AND_ORGANIZATION ( #317, #308 ) ;
#278 = DIRECTION ( 'NONE',  ( 4.275831445896958607E-31, 1.000000000000000000, 1.224646799147353207E-16 ) ) ;
#279 = AXIS2_PLACEMENT_3D ( 'NONE', #216, #39, #242 ) ;
#280 = ADVANCED_FACE ( 'NONE', ( #153, #257 ), #18, .T. ) ;
#281 = AXIS2_PLACEMENT_3D ( 'NONE', #260, #159, #97 ) ;
#282 = EDGE_LOOP ( 'NONE', ( #23 ) ) ;
#283 = DIRECTION ( 'NONE',  ( 3.491481338843133355E-15, -1.222263747179845960E-16, 1.000000000000000000 ) ) ;
#284 = APPROVAL ( #46, 'UNSPECIFIED' ) ;
#285 = DIRECTION ( 'NONE',  ( -4.325874348825681975E-31, -1.000000000000000000, -1.222263747179845960E-16 ) ) ;
#286 = DESIGN_CONTEXT ( 'detailed design', #31, 'design' ) ;
#287 = DIRECTION ( 'NONE',  ( 3.491481338843133355E-15, -1.222263747179845960E-16, 1.000000000000000000 ) ) ;
#288 = CIRCLE ( 'NONE', #281, 1.959999999999999964 ) ;
#289 = EDGE_CURVE ( 'NONE', #244, #244, #11, .T. ) ;
#290 = CARTESIAN_POINT ( 'NONE',  ( 1.047444401652940953E-14, -3.757347216304816973E-16, 3.000000000000002665 ) ) ;
#291 = DATE_AND_TIME ( #299, #112 ) ;
#292 = CARTESIAN_POINT ( 'NONE',  ( 5.935518276033325915E-15, 0.5499999999999997113, 1.699999999999999956 ) ) ;
#293 = CARTESIAN_POINT ( 'NONE',  ( 2.789689482689513687E-14, -1.960000000000000853, 7.989988236952308753 ) ) ;
#294 = CARTESIAN_POINT ( 'NONE',  ( 1.047444401652940953E-14, -0.5656865167015574514, 3.000000000000002665 ) ) ;
#295 = CC_DESIGN_PERSON_AND_ORGANIZATION_ASSIGNMENT ( #275, #143, ( #70 ) ) ;
#296 = CALENDAR_DATE ( 2021, 13, 12 ) ;
#297 = CLOSED_SHELL ( 'NONE', ( #56, #280, #51 ) ) ;
#298 = PERSON_AND_ORGANIZATION_ROLE ( 'creator' ) ;
#299 = CALENDAR_DATE ( 2021, 13, 12 ) ;
#300 = CYLINDRICAL_SURFACE ( 'NONE', #279, 0.5499999999999999334 ) ;
#301 = CC_DESIGN_DATE_AND_TIME_ASSIGNMENT ( #110, #66, ( #44 ) ) ;
#302 = AXIS2_PLACEMENT_3D ( 'NONE', #122, #174, #92 ) ;
#303 = TOROIDAL_SURFACE ( 'NONE', #87, 2.550000000000000266, 2.000000000000000000 ) ;
#304 = AXIS2_PLACEMENT_3D ( 'NONE', #15, #45, #142 ) ;
#305 = FACE_OUTER_BOUND ( 'NONE', #206, .T. ) ;
#306 = CARTESIAN_POINT ( 'NONE',  ( 1.047444401652940953E-14, -3.757347216304816973E-16, 3.000000000000002665 ) ) ;
#307 = EDGE_LOOP ( 'NONE', ( #128 ) ) ;
#308 = ORGANIZATION ( 'UNSPECIFIED', 'UNSPECIFIED', '' ) ;
#309 = DIRECTION ( 'NONE',  ( 3.491481338843133355E-15, -1.222263747179845960E-16, 1.000000000000000000 ) ) ;
#310 = DIRECTION ( 'NONE',  ( 0.0000000000000000000, -1.000000000000000000, 0.0000000000000000000 ) ) ;
#311 = PLANE ( 'NONE',  #40 ) ;
#312 = ADVANCED_FACE ( 'NONE', ( #192 ), #268, .F. ) ;
#313 = ORIENTED_EDGE ( 'NONE', *, *, #65, .F. ) ;
#314 = CARTESIAN_POINT ( 'NONE',  ( 3.316907271900976688E-14, -1.999999999999997780, 9.500000000000001776 ) ) ;
#315 = DATE_AND_TIME ( #19, #246 ) ;
#316 = DIRECTION ( 'NONE',  ( 3.491481338843133355E-15, -1.222263747179845960E-16, 1.000000000000000000 ) ) ;
#317 = PERSON ( 'UNSPECIFIED', 'UNSPECIFIED', 'UNSPECIFIED', ('UNSPECIFIED'), ('UNSPECIFIED'), ('UNSPECIFIED') ) ;
#318 = DIRECTION ( 'NONE',  ( 1.000000000000000000, 0.0000000000000000000, 0.0000000000000000000 ) ) ;
#319 = ADVANCED_FACE ( 'NONE', ( #167, #115 ), #274, .T. ) ;
#320 = COORDINATED_UNIVERSAL_TIME_OFFSET ( 1, 0, .AHEAD. ) ;
#321 = DIRECTION ( 'NONE',  ( -3.491481338843133355E-15, 1.224646799147353207E-16, -1.000000000000000000 ) ) ;
#322 = AXIS2_PLACEMENT_3D ( 'NONE', #237, #79, #100 ) ;
#323 = COORDINATED_UNIVERSAL_TIME_OFFSET ( 1, 0, .AHEAD. ) ;
ENDSEC;
END-ISO-10303-21;
